Instagram

Rider Info

Name:
Daniele
Surname:
Braidot
Date of birth:
29 May 1991
Age:
29 years old
Nationality:
Italy
Flag Italy
Category:
Men Elite
 
19-20
Elite
18-19
Elite
17-18
Elite
16-17
Elite
15-16
Elite
14-15
Elite
13-14
Elite
12-13
U23
11-12
U23
10-11
U23
09-10
U23
08-09
U19
07-08
U19
Flag World Championships
World Championships
--3040---DNF34--8-
Flag European Championships
European Championships
---------13-12-
Flag Italy
National Championships
DNF3244952214617
Flag Italy
Asolo - TV
----7--------
Flag Italy
Brugherio
-15-10186-------
Flag Italy
Fae' di Oderzo
-914101120--17-225-
Flag Italy
Fiuggi
---33---------
Flag Italy
Gorizia
-964---------
Flag Belgium
Heusden-Zolder
---52-------8-
Flag Netherlands
Hoogerheide
--58----17-----
Flag Belgium
Kalmthout
------------33
Flag Italy
Lucca
-----------3-
Flag Italy
Milano
-----61776----
Flag Belgium
Namur
---43---------
Flag France
Nommay
--44----------
Flag Italy
Ornavasso
----------15--
Flag Netherlands
Pijnacker
-----------24-
Flag Italy
Roma
-------2129----
Flag France
Roubaix
-----------8-
Flag Italy
Schio
----7--------
Flag Czech Republic
Tabor
-----------9-
Flag Italy
Treviso
----------37--
Flag Italy
Verbania
-----------8-
Flag Italy
Vittorio Veneto
-8-3---------