No image

Rider Info

Name: Cristian
Surname: Cominelli
Date of birth: 22 May 1988
Age: 33 years old
Nationality: Italy
Category: Men Elite
UCI Ranking: 50
 
20-21
Elite
19-20
Elite
18-19
Elite
17-18
Elite
16-17
Elite
15-16
Elite
14-15
Elite
13-14
Elite
12-13
Elite
11-12
Elite
10-11
Elite
09-10
U23
08-09
U23
07-08
U23
Flag World Championships
World Championships
2831--35----50312043
Flag European Championships
European Championships
2124----------23-
Flag Italy
National Championships
34446344-38152
Flag Italy
Asiago
---------1----
Flag Belgium
Baal
--------------
Flag Belgium
Bredene
-32------------
Flag Italy
Brugherio
-163241--------
Flag Italy
Cles
-14-----------
Flag Switzerland
Dagmersellen
----17--8------
Flag Belgium
Diegem
-28------------
Flag Italy
Fae' di Oderzo
-10134-14217-4-1472
Flag Italy
Fiuggi
----3511--------
Flag Switzerland
Frenkendorf
---------2----
Flag Italy
Gorizia
--316----------
Flag Belgium
Heusden-Zolder
-43-------35-52-
Flag Switzerland
Hittnau
--18-14----3----
Flag Belgium
Hofstade
-------------42
Flag Netherlands
Hoogerheide
--44--41---333315--
Flag Belgium
Hooglede-Gits
--------------
Flag Belgium
Hoogstraten
--------------
Flag Spain
Igorre
---------19----
Flag Italy
Isolaccia
---------3----
Flag Italy
Jesolo
-1------------
Flag Belgium
Kalmthout
--------------
Flag Belgium
Koksijde
---------29-157-
Flag France
Liévin
---------44---DNF
Flag France
Lignières-en-Berry
-----41--------
Flag Belgium
Loenhout
-42---------23--
Flag Italy
Lucca
------------10-
Flag Switzerland
Meilen
-2322-1921--------
Flag Italy
Milano
-3-107-86--2-3523
Flag Italy
Montalto di Castro - VT
-----1--------
Flag Italy
Monte di Buja
---------6----
Flag Italy
Morbegno
--------------
Flag Belgium
Namur
-47-------48----
Flag France
Nommay
------2232-6----
Flag Italy
Ornavasso
-----------6--
Flag Luxembourg
Pétange
-9---------4--
Flag Switzerland
Pfaffnau
-----18--------
Flag Netherlands
Pijnacker
------------18-
Flag Czech Republic
Plzen
--------5226----
Flag France
Pontchâteau
--31-----------
Flag Italy
Portoferraio - Isola d'Elba - Livorno
-----1--------
Flag Italy
Roma
-----44--2----
Flag France
Roubaix
------------8-
Flag Italy
Saccolongo
-6------------
Flag France
Saverne
--------21-----
Flag Italy
Schio
-----5--------
Flag Italy
Silvelle
------8-------
Flag Switzerland
Sion
----8---------
Flag Czech Republic
Tabor
--------4128--11-
Flag Italy
Treviso
-----------3--
Flag Italy
Verbania
------------4-
Flag Italy
Vittorio Veneto
-7311---------
Flag Switzerland
Wetzikon
--------------