30 January 2021
Oostende, Belgium
 
19-20
CM
18-19
CM
17-18
CM
16-17
CM
15-16
CM
14-15
CM
13-14
CM
12-13
CM
11-12
CM
10-11
CM
09-10
CM
08-09
CM
07-08
CM
06-07
CM
Flag Netherlands
KAMP Ryan
17------------
Flag Switzerland
KUHN Kevin
2142336----------
Flag Netherlands
HENDRIKX Mees
325------------
Flag France
BENOIST Antoine
436-----------
Flag Netherlands
RONHAAR Pim
5-------------
Flag Spain
FEIJOO ALBERTE Iván
61826-----------
Flag Belgium
VANDEPUTTE Niels
710------------
Flag Great Britain
MASON Cameron
830------------
Flag Belgium
CAMPS Jelle
9-------------
Flag Belgium
BEKAERT Yentl
10-------------
Flag Switzerland
ROUILLER Loris
118------------
Flag Netherlands
AGTERBERG Kyle
12-------------
Flag United States
BRUNNER Eric
13-DNF-----------
Flag Belgium
KIELICH Timo
142910-----------
Flag Great Britain
TURNER Ben
15625-----------
Flag United States
HECHT Gage
1612931----------
Flag Belgium
VANDEBOSCH Toon
17-12-----------
Flag Italy
FOLCARELLI Antonio
18344324----------
Flag Netherlands
VAN DIJKE Tim
1917------------
Flag France
THOMAS Théo
20-------------
Flag United States
SWARTZ Caleb
21-------------
Flag Great Britain
MEIN Thomas
229------------
Flag Spain
CULLELL ESTAPE Jofre
233514-----------
Flag Switzerland
SOMMER Jan
24-------------
Flag France
GAGNAIRE Maxime
25-------------
Flag France
BONNET Thomas
26-------------
Flag Spain
MURIAS GARCIA Xabier
2750------------
Flag France
DELBOVE Joris
28-------------
Flag Czech Republic
JELINEK Josef
292638-----------
Flag France
CRISPIN Mickaël
3048------------
Flag Czech Republic
KOPECKY Tomás
344------------
Flag Italy
DORIGONI Jakob
405850----------
Flag Germany
MÖBIS Maximilian
48452428----------
Flag Great Britain
PIDCOCK Tom
-115-----------
Flag Belgium
ISERBYT Eli
-21171---------
Flag Belgium
LOOCKX Lander
-11------------
Flag Netherlands
VAN DER HEIJDEN Maik
-13221229---------
Flag Belgium
GOEMAN Andreas
-15------------
Flag United States
PETROV Spencer
-163418----------
Flag Great Britain
TULETT Daniel
-1920-----------
Flag France
DUJARDIN Sandy
-20------------
Flag Netherlands
VAN DER STEGEN Roel
-21------------
Flag United States
HAIDET Lance
-22-25----------
Flag United States
WILLSEY Cooper
-23-22----------
Flag United States
FIX Brannan
-24------------
Flag France
LEGRAND Matthieu
-27------------
Flag Canada
HOLMGREN Gunnar
-28------------
Flag Slovakia
ULIK Matej
-32352940---------
Flag France
FINE Eddy
-361313----------
Flag Italy
SALA Stefano
-4021-31---------
Flag Netherlands
NIEUWENHUIS Joris
--21145--------
Flag France
GRAS Yan
--3-DNF---------
Flag Czech Republic
TOUPALIK Adam
--4-222--------
Flag Belgium
AERTS Thijs
--544---------
Flag Netherlands
WOUTERS Sieben
--739---------
Flag Belgium
PEETERS Yannick
--11192821--------
Flag Netherlands
ARENSMAN Thymen
--16-----------
Flag France
DUBAU Lucas
--17142326--------
Flag Switzerland
RÜEGG Timon
--18212129--------
Flag Netherlands
BAKX Kelvin
--1910----------
Flag Netherlands
DEKKER Jens
--27-----------
Flag Switzerland
SCHMID Mauro
--28-----------
Flag United States
ELLWOOD Grant
--29-3331--------
Flag Belgium
SCHUERMANS Jelle
--30-----------
Flag France
DUBAU Joshua
--3162423--------
Flag Czech Republic
SCHUBERT Stepan
--41-3035--------
Flag Switzerland
JACOBS Johan
--481616---------
Flag Spain
ORTS LLORET Felipe
---261751-------
Flag Belgium
CLEPPE Nicolas
---517---------
Flag Italy
BERTOLINI Gioele
---771021-------
Flag Denmark
ANDREASSEN Simon
---812---------
Flag Belgium
HERMANS Quinten
---939--------
Flag France
RUSSO Clement
---1153219-------
Flag Belgium
GOOSSENS Kobe
---15----------
Flag Italy
COLLEDANI Nadir
---201524--------
Flag Germany
MÜLLER Manuel
---23----------
Flag Poland
BOGUSLAWSKI Marceli
---2632---------
Flag Slovakia
VOZAR Simon
---2737-55-------
Flag Italy
BASSANI Michele
---30----------
Flag Netherlands
VAN DER MEER Gosse
---4719---------
Flag Netherlands
BUDDING Martijn
----81215-------
Flag Belgium
SOETE Daan
----10---------
Flag Belgium
HOEYBERGHS Daan
----11---------
Flag United States
OWEN Logan
----131514-------
Flag United States
WHITE Curtis
----181924-------
Flag Spain
SUAREZ FERNANDEZ Kevin
----2018--------
Flag Germany
DRUMM Felix
----222739-------
Flag France
MORICHON Mathieu
----25---------
Flag Germany
GRUNER Yannick
----26-42-------
Flag United States
DILLMAN Andrew
----2725-25------
Flag United States
ORTENBLAD Tobin
----35283439------
Flag Belgium
VANTHOURENHOUT Michael
-----12826-----
Flag Belgium
SWEECK Laurens
-----2465-----
Flag Netherlands
GODRIE Stan
-----316-15-----
Flag France
VENTURINI Clément
-----4222118-----
Flag Belgium
AERTS Toon
-----65-------
Flag Czech Republic
SKALA Jakub
-----72318------
Flag Belgium
SWEECK Diether
-----8--------
Flag Czech Republic
NIPL Vojtech
-----11351717-----
Flag Switzerland
LIENHARD Fabian
-----13252632-----
Flag France
DOUBEY Fabien
-----1420-------
Flag Switzerland
FRISCHKNECHT Andri
-----16--------
Flag Denmark
CARSTENSEN FINI Sebastian
-----20--------
Flag Great Britain
CLARKSON Jack
-----3052-40-----
Flag Belgium
VAN AERT Wout
------13------
Flag Netherlands
VAN DER POEL Mathieu
------3-------
Flag Netherlands
VAN DER POEL David
------62013-----
Flag France
MENUT David
------7149-----
Flag Czech Republic
PAPRSTKA Tomas
------8281619----
Flag Netherlands
BOSMAN Gert-Jan
------9-------
Flag Belgium
VERMEERSCH Gianni
------101010-----
Flag Netherlands
TEUNISSEN Mike
------11172----
Flag France
TURGIS Anthony
------12-------
Flag Czech Republic
BOROS Michael
------1324-21----
Flag Spain
LASTRA MARTINEZ Jonathan
------171537-----
Flag Denmark
PEDERSEN Jonas
------18-------
Flag Belgium
ADAMS Jens
------265------
Flag Czech Republic
LASAK Matej
------27-------
Flag United States
ECKMANN Yannick
------281629-----
Flag Switzerland
SÄGESSER Severin
------2927------
Flag United States
KAISER Cody
------30-3836----
Flag Great Britain
JAMES Steven
------3130DNF-----
Flag Switzerland
MÜLLER Lukas
------3323-40----
Flag Switzerland
FORSTER Lars
------381924-----
Flag Belgium
BOSMANS Wietse
-------226----
Flag Netherlands
EISING Tijmen
-------4-57---
Flag Netherlands
VAN DER HEIJDEN Michiel
-------73-----
Flag Netherlands
VAN KESSEL Corné
-------9--18---
Flag United States
MCDONALD Zach
-------11122326---
Flag Denmark
HANSEN Kenneth
-------12251740---
Flag Germany
SCHWEIZER Michael
-------13233037---
Flag France
ALAPHILIPPE Julian
-------2214-----
Flag United States
JOHNSON Joshua
-------29------
Flag Netherlands
VAN DER HAAR Lars
--------1110---
Flag France
JOUFFROY Arnaud
--------4-115--
Flag Poland
KONWA Marek
--------615310--
Flag Switzerland
GRAND Arnaud
--------827425--
Flag Belgium
BRAET Vinnie
--------1114----
Flag Italy
SILVESTRI Elia
--------1946845--
Flag Czech Republic
NESVADBA Jan
--------203221---
Flag Italy
FALASCHI Bryan
--------21-25---
Flag Czech Republic
HNIK Karel
--------22330---
Flag Italy
SMARZARO Igor
--------27-----
Flag Netherlands
VAN EMPEL Micki
--------28291424--
Flag Great Britain
GALLAGHER Kenta
--------3026----
Flag Germany
WALSLEBEN Max
--------3128----
Flag France
BOULO Matthieu
---------42213--
Flag Switzerland
SCHERZ Valentin
---------723---
Flag Belgium
ADAMS Joeri
---------831-35-
Flag France
TURGIS Jimmy
---------9----
Flag Belgium
BAESTAENS Vincent
---------101214--
Flag Germany
MEISEN Marcel
---------11161830-
Flag France
GRAS Irwin
---------1239---
Flag United States
SUMMERHILL Daniel
---------132732--
Flag Netherlands
VAN DEN BRAND Twan
---------16-22--
Flag Italy
TABACCHI Mirko
---------18----
Flag Belgium
AERNOUTS Jim
---------202431--
Flag Spain
INSAUSTI IRASTORZA Jon Ander
---------22----
Flag Germany
QUAST Ole
---------24292338-
Flag Switzerland
WINTERBERG Michael
---------25----
Flag Italy
TRENTIN Matteo
---------3391221-
Flag Czech Republic
PETRUS Lubomir
---------3715---
Flag Belgium
MEEUSEN Tom
----------22918-
Flag Slovakia
GAVENDA Robert
----------5202713
Flag Germany
WEBER Sascha
----------65-31
Flag Belgium
VAN COMPERNOLLE Kenneth
----------1116--
Flag Czech Republic
POLNICKY Jiri
----------132139-
Flag Spain
LOZANO RIBA David
----------17DNF32-
Flag Switzerland
RUPP Matthias
----------19---
Flag Italy
COMINELLI Cristian
----------204330
Flag Sweden
NILSSON Mattias
----------283337-
Flag Czech Republic
MENGER David
----------33-4727
Flag Netherlands
HUENDERS Mitchell
----------441922-
Flag Poland
SZCZEPANIAK Pawel
----------DSQ314-
Flag Germany
WALSLEBEN Philipp
-----------1165
Flag Germany
PFINGSTEN Christoph
-----------2--
Flag Belgium
BERTHOLET Quentin
-----------61917
Flag France
PERROT Guillaume
-----------78-
Flag Netherlands
SINKELDAM Ramon
-----------810-
Flag France
BOURGOIN Clément
-----------95-
Flag France
DUVAL Aurelien
-----------11212
Flag Great Britain
FLETCHER David
-----------17--
Flag Poland
JANISZEWSKI Sylwester
-----------263143
Flag United States
SELANDER Bjorn
-----------27--
Flag Italy
PONTA Marco
-----------283337
Flag Netherlands
VAN POPPEL Boy
-----------3040-
Flag Italy
CALDERAN Alessandro
-----------3426-
Flag Czech Republic
BAMBULA Ondrej
-----------371526
Flag Switzerland
TARAMARCAZ Julien
-----------3828-
Flag Belgium
ALBERT Niels
------------12
Flag France
LOPEZ Jonathan
------------47
Flag Czech Republic
KLOUCEK Lukas
------------66
Flag Italy
URSI Fabio
------------7-
Flag Germany
VOSS Paul
------------9-
Flag Netherlands
VAN AMERONGEN Thijs
------------1120
Flag Luxembourg
DRUCKER Jean-Pierre
------------1221
Flag France
PION Julien
------------13-
Flag Switzerland
LANG René
------------1724
Flag Great Britain
FIELD Ian
------------2016
Flag Spain
IZAGUIRRE INSAUSTI Gorka
------------23-
Flag Germany
TIEDT Yannik-Johannes
------------2433
Flag Belgium
LEEMANS Wim
------------25-
Flag Netherlands
HARTOGS Ivar
------------29-
Flag Netherlands
BOOM Lars
-------------1
Flag France
VILLA Romain
-------------3
Flag Czech Republic
STYBAR Zdenek
-------------4
Flag Belgium
PEETERS Rob
-------------8
Flag Italy
VISINELLI Rafael
-------------9
Flag Netherlands
VAN DER VELDE Ricardo
-------------10
Flag Germany
HEITMANN Finn
-------------11
Flag Netherlands
VAN IJZENDOORN Eddy
-------------14
Flag Belgium
VAN DEN BOSCH Tom
-------------15
Flag Czech Republic
KLOUCEK Frantisek
-------------18
Flag Italy
MALACARNE Davide
-------------19
Flag France
LEJEUNE Romain
-------------22
Flag Switzerland
FLÜCKIGER Mathias
-------------23
Flag Belgium
VANTHOURENHOUT Dieter
-------------25
Flag Netherlands
VAN LEEUWEN Patrick
-------------28
Flag Switzerland
WILDHABER Marcel
-------------29