31 January 1993
Corva, Italy
 
92-93
CM
91-92
CM
90-91
CM
89-90
CM
88-89
CM
87-88
CM
86-87
CM
85-86
CM
84-85
CM
83-84
CM
82-83
CM
81-82
CM
80-81
CM
79-80
CM
Flag Denmark
DJERNIS Henrik
130212-3-369-----
Flag Germany
BERNER Ralf
28-301511--------
Flag Italy
PONTONI Daniele
3132612---------
Flag Czech Republic
LUKES Ondrej
418------------
Flag Netherlands
GROENENDAAL Richard
526507----------
Flag Switzerland
FRISCHKNECHT Thomas
6313----------
Flag Poland
GIL Dariusz
739------------
Flag Belgium
JANSSENS Marc
8--25-16--------
Flag Czech Republic
ELSNIC Pavel
9710-----------
Flag Switzerland
MARKWALDER Urs
101230-----------
Flag France
CHIOTTI Jérome
111640-----------
Flag Switzerland
BÜSSER Andreas
1261211121--------
Flag Germany
ARENZ Jörg
13926-----------
Flag Switzerland
ITEN Albert
14-----24-------
Flag Czech Republic
POSPISIL Jiri
1511------------
Flag Belgium
VERVECKEN Erwin
1617------------
Flag Italy
FONTANA Alessandro
1725------------
Flag Germany
SCHWEDLER Jens
1822------------
Flag France
MENGIN Christophe
19-------------
Flag Spain
PLA GARCIA Francisco José
2027423940---------
Flag Germany
NIEBERDING Franz-Josef
21-------------
Flag Poland
BARUL Slawomir
222327291622--------
Flag Netherlands
BRENTJENS Bart
23-------------
Flag Belgium
WILLEMSENS Peter
2421------------
Flag Belgium
VAN BOUWEL Gustaaf
25-18-----------
Flag Poland
KORZENIEWSKI Tadeusz
2629------------
Flag Austria
STARI Dietmar
2740------------
Flag Netherlands
GROENENDAAL Frank
28-348----------
Flag Italy
BILATO Gabriele
29203333----------
Flag Spain
IGARTUA Inigo
303125153445--------
Flag Italy
GREGO Damiano
313223239-315-43----
Flag Luxembourg
DRÜCKER Jempy
32-163430-3825--41-37-
Flag Netherlands
GERRITSEN Marcel
35-411-15--------
Flag Czech Republic
CAMRDA Pavel
36-15-----------
Flag France
CAILLEAU Laurent
39----352011------
Flag Switzerland
RUNKEL Dieter
-2119137--------
Flag France
MAGNIEN Emmanuel
-431-----------
Flag Switzerland
HUBMANN Andreas
-5------------
Flag Czech Republic
FORT Radovan
-109---13--5----
Flag France
PAGNIER David
-131319----------
Flag Denmark
JØRGENSEN Michael
-143540-29--------
Flag Belgium
VAN RIET Pascal
-15-14----------
Flag Netherlands
KUIJPER Edward
-195528---------
Flag Germany
WITTIG-KUPFERNAGEL Torsten
-24------------
Flag Poland
PIECH Edward
-282941434-45222119132611
Flag Austria
ZAUNER Gerhard
-4128-----------
Flag Germany
BERNER Timo
--644-36--------
Flag Belgium
THIELEMANS Rudy
--7---42-17-----
Flag Switzerland
WABEL Beat
--8136---------
Flag Belgium
DE ROOSE Kurt
--1424----------
Flag Germany
DAENE Mathias
--17-----------
Flag France
DANIEL Alain
--19205-11623-7---
Flag Poland
BONDARYK Robert
--20---28-------
Flag Czech Republic
HLADIK Frantisek
--21-----------
Flag Germany
BICKEL Georg
--2218221833-------
Flag Poland
KADRZYNSKI Wojciech
--24-----------
Flag Belgium
BLOMME Johnny
--436----------
Flag Great Britain
BARNES Stephen
--512129--20313538---
Flag Czech Republic
KVASNICKA Miloslav
---28---13236---
Flag Slovakia
HRIC Petr
---104--968----
Flag Czech Republic
BAMBULA Stanislav
---16----------
Flag France
CHANTON Eric
---17----------
Flag France
PIRIAC Stéphane
---22----------
Flag Spain
IZAGUIRRE MENDIZABAL José Ramon
---27--1931--45---
Flag Italy
DI TANO Vito
---28266391181121559
Flag Czech Republic
KLOUCEK Frantisek
---31-232---816--
Flag Great Britain
CLARKE Barrie
---32354229-------
Flag Spain
DURAN CORBACHO Benito
---35-4350304646-4333-
Flag United States
MYRAH Don
---424226--------
Flag Slovakia
GLAJZA SR. Ondrej
----127-1216-----
Flag Czech Republic
SIMUNEK SR. Radomir
----212-14-11221-
Flag Switzerland
HONEGGER Roger
----32--------
Flag France
MAQUET Daniel
----725-19------
Flag France
LE BRAS Bruno
----10872811-----
Flag Italy
MARGON Fabrizio
----1717--------
Flag Belgium
VERVAET Eric
----1810--------
Flag Denmark
OMMER Frank
----19-153715-1335--
Flag Germany
SYDLIK Werner
----20---------
Flag Belgium
VAN DIJCK Guy
----21-16-------
Flag Belgium
HAUTEKEETE Christian
----2319--------
Flag France
MARTINEZ Didier
----245----30---
Flag Czech Republic
CAMRDA Carl
----251--------
Flag Great Britain
YOUNG Christopher
----27303713423034---
Flag Belgium
PAUWELS Dirk
----31--741-----
Flag Denmark
MÖLLER Allan
----39203527-2329322727
Flag Switzerland
D'ARSIÉ Bruno
-----434-3-----
Flag Great Britain
GOULD Timothy
-----945-------
Flag Netherlands
VAN DER LEY Noël
-----131718------
Flag Belgium
MOONEN Alex
-----1410-------
Flag Poland
JAROSZEWSKI Grzegorz
-----24-2286161223
Flag Italy
DAL GRANDE Giuseppe
-----2840-------
Flag Italy
BONO Sandro
-----31222972824---
Flag Great Britain
BAKER David
-----3726-2440----
Flag Netherlands
GUIJT René
-----4027-------
Flag Germany
KLUGE Mike
------115113----
Flag Czech Republic
KREUZIGER Roman
------3-------
Flag Netherlands
HENDRIKS Martin
------4-10-----
Flag Germany
REDOMSKI Christian
------54427-----
Flag Czech Republic
KLOUCEK Petr
------6841438-15
Flag Switzerland
BÜCHI Hans-Rüdi
------84------
Flag Switzerland
MÜLLER Peter
------9-------
Flag Belgium
DE REY Ludo
------123-105---
Flag Poland
KORYCKI Mieczyslaw
------14-------
Flag United States
WIEJAK Jan
------18242618----
Flag Italy
VETTOREL Claudio
------21-20-----
Flag Netherlands
PLEIJ Riny
------23-------
Flag France
ARNOULD Dominique
------25-------
Flag Austria
HAINZ Albert
------30-------
Flag Belgium
MESSELIS Yvan
-------229496-8
Flag Netherlands
KOOLS Huub
-------1030-32---
Flag Switzerland
HOFER Rolf
-------16------
Flag Switzerland
HOLDENER Erich
-------17------
Flag Germany
KRUKENBAUM Volker
-------21-16----
Flag Belgium
DE BIE Danny
-------2328-----
Flag Germany
SCHLEICHER Jörgfried
-------26---1816-
Flag Switzerland
SCHUMACHER Beat
-------35231----
Flag Netherlands
VAN BAKEL Frank
--------53-2242-
Flag Netherlands
HARINGS Peter
--------12-33---
Flag Switzerland
KÜRIGER Sepp
--------142214-8-
Flag Poland
ANTKOWIAK Jan
--------19-2634--
Flag Great Britain
DOUCE Steve
--------21202737--
Flag Switzerland
RICHARD Pascal
--------2512----
Flag Spain
VIJANDI ALVAREZ José Ignacio
--------3437--1926
Flag France
DUBUIS Gilles
--------3529----
Flag Netherlands
HERMANS Mathieu
---------7----
Flag Netherlands
BOOM Hans
---------9-412-
Flag France
BLANCHARDON Patrice
---------15-20-33
Flag Belgium
VANDEVIVERE Marc
---------17----
Flag Switzerland
MÜLLER Ueli
---------1937377
Flag Netherlands
FRIJTERS Pierre
---------24----
Flag Germany
RUSER Wolfgang
---------25----
Flag Belgium
DE BIE Rudy
---------26121436-
Flag France
DUZELLIER Pierre-Yves
---------27---12
Flag Germany
PAUS Rainer
---------38-271522
Flag Belgium
VAN DER FRAENEN Werner
----------2---
Flag Poland
MAKOWSKI Andrzej
----------42362
Flag Czech Republic
FISERA Milos
----------611-
Flag Netherlands
SNOEIJINK Herman
----------101011-
Flag Italy
PACCAGNELLA Ottavio
----------11251316
Flag Switzerland
WOODTLI Bernhard
----------1530--
Flag Switzerland
SALADIN Fritz
----------179141
Flag France
PERRET Daniel
----------18-24-
Flag Germany
WEIS Heinz
----------202928-
Flag Russia
GAVRILOV Vitaly
----------22-34-
Flag Great Britain
WREGHITT Chris
----------23112923
Flag Switzerland
FURRER Hans-Jürg
----------25---
Flag Italy
FASOLO Claudio
----------28241830
Flag Denmark
JÖRGENSEN Leif
----------4338-24
Flag France
PLAISANCE Jean-Yves
-----------71029
Flag Belgium
DE BRAUWER Paul
-----------15310
Flag Belgium
DE BRUYNE Eric
-----------1725-
Flag France
DESCLOS Hilaire
-----------19--
Flag Switzerland
LAFRANCHI Carlo
-----------21174
Flag Czech Republic
SULC Ladislav
-----------26--
Flag Spain
MUJIKA ARAMBURU Jokin
-----------28--
Flag Italy
VAGNEUR Franco
-----------3396
Flag Netherlands
DOLFSMA Gert
-----------4022-
Flag Germany
DIETZEN Raimund
------------419
Flag Poland
STEINKE Tadeusz
------------2017
Flag Switzerland
HAUSELMANN René
------------23-
Flag Spain
EGUIARTE SOLEAGUI Juan Maria
------------3035
Flag Luxembourg
MICHELY Claude
------------3528
Flag Germany
ÜBING Dieter
-------------5
Flag Belgium
DE SCHACHT Freddy
-------------13
Flag Belgium
NAUDTS Luc
-------------14
Flag United States
MALONE Laurence
-------------18
Flag Switzerland
HÄGI Peter
-------------20
Flag Germany
WILLER Helmut
-------------21
Flag Netherlands
ZOONTJENS Berry
-------------25