13 December 2020
Iowa City, IO, United States
 
19-20
CN
18-19
CN
17-18
CN
16-17
CN
15-16
CN
14-15
CN
13-14
CN
12-13
CN
11-12
CN
10-11
CN
09-10
CN
08-09
CN
07-08
CN
06-07
CN
Flag United States
HONSINGER Clara
1-------------
Flag United States
FAHRINGER Rebecca
246861550-------
Flag United States
COMPTON Katherine
31111111111111
Flag United States
MCFADDEN Courtenay
49451212-14------
Flag United States
KEOUGH Kaitlin
553332792101224--
Flag United States
GILBERT Sunny
6220913101435-3748---
Flag United States
RUNNELS Samantha
7207173136--------
Flag United States
NOLAN Caroline
81913--31--------
Flag United States
NAUMAN Amanda
9345-73413-------
Flag United States
BERNSTIEN Caitlin
10261021----------
Flag United States
ANTHONY Crystal
111417615545172535---
Flag United States
STURM Sarah
12812---5839------
Flag United States
FLEISCHER Tricia
13----27--------
Flag United States
TAPLIN Stephanie
14-------------
Flag United States
WILLIAMS Carla
1516------------
Flag United States
NUSS Raylyn
161216-----------
Flag United States
SCHALDACH Emily
17-------------
Flag United States
ZAVETA Erica
181022-17174721------
Flag United States
ARMAN Daniele
19--152942--------
Flag United States
RUSSENBERGER Sophie
20-------------
Flag United States
ORTON Beth Ann
211314--13392327-----
Flag United States
ARENSMAN Allison
22-3123-41202935-----
Flag United States
FRANZ Heidi
23-DNF-----------
Flag United States
DOROVSKIKH Anna
2427------------
Flag United States
CAMERON Emily
25-------------
Flag United States
WILSON Moriah
26-------------
Flag United States
LLOYD Monica
27-------------
Flag United States
HALPIN Allison
28-------------
Flag United States
WERNER Emily
2932242436285341307277---
Flag United States
ETHRIDGE Leslie
303835-----------
Flag United States
MALIK Jennifer
3311152730---------
Flag United States
USHER Anne
342329------58----
Flag United States
RUBINO Rachel
3531263027---------
Flag United States
KUYK-WHITE Taylor
3922------------
Flag United States
SHELDON Elizabeth
4124------------
Flag United States
MEGALE Anna
492530-----------
Flag United States
NOBLE Ellen
-32--6121629-----
Flag United States
LEGGE Regina
-62722----------
Flag United States
WILLIAMS Lily
-78-----------
Flag United States
MAXIMENKO Cassandra
-1518191029--60-----
Flag United States
KEMMERER Arley
-171171681110101819-43-
Flag United States
SHERIDAN ROSSI Jane
-18------------
Flag United States
LEGAN Kristen
-2123---45-------
Flag United States
RATHBUN Laurel
-28---3033-------
Flag United States
OWENS Meghan
-29------------
Flag United States
GROSS Rebecca
-309112026253024-----
Flag United States
FACCONE Erin
-3932293721--------
Flag United States
TAPIAS Natalie
-44-2539---------
Flag United States
KACHOREK Emily
--1913223315-------
Flag United States
STETSON-LEE Teal
--21----6416----
Flag United States
GHENT Christa
--25-----------
Flag United States
WINBERRY Laura
--28142520---3453---
Flag United States
STEERS Campbell
--DNF28----------
Flag United States
MILLER Amanda
---297-22------
Flag United States
ANDERSON Elle
---441121237-----
Flag United States
MCCUTCHEON Melinda
---10----------
Flag United States
WRIGHT Julie
---1224---------
Flag United States
CUMMING Kathryn
---16181944-------
Flag United States
PATTON Courtney
---18----------
Flag United States
NORTHCOTT Katherine
---2026-41-------
Flag United States
LYSAKOWSKI Kathleen
---26---34------
Flag United States
WHITE Elizabeth
---33--23-------
Flag United States
BOWMAN Brittlee
---352314564340-----
Flag United States
GOULD Georgia
----2454-2-232
Flag United States
LLOYD Rachel
----536----32-
Flag United States
MILLER Meredith
----8-386327--
Flag United States
GREASER Jena
----11---------
Flag United States
VESTAL Caitlyn
----14-31-------
Flag United States
MERTZ Nicole
----19---------
Flag United States
STACHER Ally
----213522-------
Flag United States
BLATT Rebecca
----28-32191626----
Flag United States
BRUNO ROY Maureen
-----910782196514
Flag United States
FINCHAMP Hannah
-----16163153-----
Flag United States
SANSOME Carol Jeane
-----1851-------
Flag United States
BIRCH Christina
-----223620------
Flag United States
WOODRUFF Chloe
-----239-------
Flag United States
CUTLER Jessica
-----2419--6370---
Flag United States
COOGAN CISEK Corey
-----25671741504653--
Flag United States
HUNTER Julie
-----4426-68-----
Flag United States
DUKE Nicole
------833628---
Flag United States
BARKER Melissa
------17-------
Flag United States
FREEMAN Judy
------18-------
Flag United States
THIEMANN Nicole
------21-212432---
Flag United States
LEPIKHINA Ksenia
------24-------
Flag Argentina
GOMEZ VILLAFANE Sofia
------27-------
Flag United States
HOGAN Karen
------28-------
Flag United States
GOKEY-SMITH Christina
------29-------
Flag United States
WEBER Kristin
------302426-----
Flag United States
PENNINGTON Alice
------4213151413---
Flag United States
MARSHALL Brianne
------5527------
Flag United States
WILCOXSON Jade
-------2------
Flag United States
SMITH Andrea
-------111413629--
Flag United States
CAREY Amanda
-------15-9----
Flag United States
STRIGEL Abby
-------1828-----
Flag United States
MARKEY Amber
-------25------
Flag United States
BARBOSSA Stacey
-------262254----
Flag United States
ARNOLD Katie
-------28------
Flag United States
RIVERA Coryn
--------5203120--
Flag United States
BUTLER Susan
--------75109612
Flag United States
VAN GILDER Laura
--------9754--
Flag United States
BINGHAM Kelsy
--------11-----
Flag United States
ANNIS Sally
--------12112033--
Flag United States
POPOVIC Carolyn
--------1338-3119-
Flag United States
CURRY Lisa
--------182838---
Flag United States
SCHNEIDER Samantha
--------19--433659
Flag United States
STUDLEY Kari
--------20-161640-
Flag United States
GORDON Serena
--------232752---
Flag United States
SONE Linda
--------252314302025
Flag United States
GIBSON Shannon
--------3132--28-
Flag United States
WONG Dorothy
--------629269624830
Flag United States
SHERWIN Katherine
---------4211116-
Flag United States
HOWE Barbara
---------839-17-
Flag United States
BARNHOLT Kerry
---------12--43
Flag United States
BRESNICK-ZOCCHI Sara
---------15----
Flag United States
DOMBROSKI Amy
---------17351862
Flag United States
D'AMBRUOSO Ann
---------1918---
Flag New Zealand
KOONS Linnea
---------22----
Flag United States
HASKELL Devon
---------29571442-
Flag United States
THURSTON Emily
---------3078---
Flag United States
JAMES Ashley
---------3129---
Flag United States
GAVIN Kristin
---------332439--
Flag United States
SARVARY Kathy
---------76-452338
Flag United States
APPLEGATE Cara
---------86-38-29
Flag United States
DUNLAP Alison
----------4---
Flag United States
MCCONNELOUG Mary
----------7---
Flag United States
EMMETT Kelli
----------810--
Flag United States
WINFIELD Deidre
----------118-4
Flag United States
BARENSFELD Anna
----------15---
Flag United States
BERG Kristi
----------1723-15
Flag United States
WENTWORTH Kristin
----------221547-
Flag United States
KNAPP Ann
----------23--5
Flag United States
HANNON Kathleen
----------25---
Flag United States
WALKER Kris
----------262838-
Flag United States
FRYE Elizabeth
----------27---
Flag United States
LYNDON-GRIFFITH Beth
----------3059--
Flag United States
VAN METER Emily
----------3318--
Flag United States
MAZZA Rhonda
----------6512-6
Flag United States
FOURNIER Sami
----------76-5827
Flag United States
WILLIAMS Wendy
-----------131010
Flag United States
JORDAN Sarah
-----------171416
Flag United States
JACQUES-MAYNES BEGGS Josie
-----------191120
Flag United States
MILKOWSKI Anna
-----------213317
Flag United States
YOUNG Anna
-----------22--
Flag United States
WELLONS Rebecca
-----------255113
Flag United States
BROWN Sydney
-----------2641-
Flag United States
WALLACE Amy
-----------27921
Flag United States
ROTHFUSS Cris
-----------322424
Flag United States
SWARTZ Melanie
-----------372519
Flag United States
BISHOP Lindsey
-----------4021-
Flag United States
SCHWARTZ Anne
-----------493035
Flag United States
WALBERG Catherine
-----------563226
Flag United States
PLEISS Christie
-----------6927-
Flag United States
OLDS Shelley
------------78
Flag United States
THOMAS Melissa
------------811
Flag United States
KROEPSCH Lara
------------12-
Flag United States
MONROE Megan
------------1318
Flag United States
TESCHER Sarah
------------15-
Flag United States
WHITE Stephanie
------------22-
Flag United States
MANDEFIELD Kacey
------------26-
Flag United States
METZGER Melodie
------------29-
Flag United States
TILLEY Jennifer
------------3928
Flag United States
VARDAROS Christine
-------------7
Flag United States
LOZANO Mandy
-------------9
Flag United States
STOICK Brigette
-------------22
Flag United States
KASSOY Erin
-------------23