13 December 2020
Iowa City, IO, United States
 
19-20
CN
18-19
CN
17-18
CN
16-17
CN
15-16
CN
14-15
CN
13-14
CN
12-13
CN
11-12
CN
10-11
CN
09-10
CN
08-09
CN
07-08
CN
06-07
CN
Flag United States
STROHMEYER Andrew
19------------
Flag United States
SCOTT Jared
24------------
Flag United States
SHEFFIELD Magnus
33------------
Flag United States
GALLEGO Ivan
4-------------
Flag United States
CARTER Nick
52------------
Flag United States
MCDONALD Ian
618------------
Flag United States
JOHNSON Kyle
7-------------
Flag United States
SERVETAS Tommy
817------------
Flag United States
ZAKRAJSEK Dylan
9-------------
Flag United States
HLUDZINSKI Vin
10-------------
Flag United States
FEUERHELM Luke
11-------------
Flag United States
PARKER Tayton
12-------------
Flag United States
NEWMAN Tydeman
13-------------
Flag United States
STIERWALT Lucas
146------------
Flag United States
AUGUST Trevor
1528------------
Flag United States
SELL Brock
1615------------
Flag United States
UETRECHT Ryder
17DNF------------
Flag United States
BRENNEMAN Owen
1821------------
Flag United States
KRAUSE Elijah
19-------------
Flag United States
AMALONG John Paul
20DNF------------
Flag United States
OLSEN Dakota
21-------------
Flag United States
AUGUST Owen
22-------------
Flag United States
WILKERSON Peyton
23-------------
Flag United States
GARAOUY Cole
24-------------
Flag United States
ELPHINGSTONE Luke
25-------------
Flag United States
VILLAMIZAR Nicolas
26-------------
Flag United States
WILLIAMS Ian
2724------------
Flag United States
BOYD Oliver
28-------------
Flag United States
DAY Sam
29-------------
Flag United States
OLANDER Jacob
30-------------
Flag United States
WILLIAMS Jamie
3514------------
Flag United States
BOWEN Gavin
5029------------
Flag United States
MORTON Alex
-1------------
Flag United States
VAN KEMPEN Jules
-5------------
Flag United States
PIEPGRAS George
-7------------
Flag United States
MOCK Daxton
-8------------
Flag United States
WHITE Harrison
-10------------
Flag United States
MCNEILL Dillon
-113-----------
Flag United States
KNOWLES Nathan
-1215-----------
Flag United States
REYNOLDS Tyler
-13------------
Flag United States
SPRINGER Charles
-1612-----------
Flag United States
PETERSON Ethan
-19------------
Flag United States
KRYNOCK Jacob
-2034-----------
Flag United States
HUGHES John
-22------------
Flag United States
POLLARD Dylan
-2330-----------
Flag United States
KEYES Eli
-25------------
Flag United States
MILLIKEN August
-26------------
Flag United States
BOBROW William
-27------------
Flag United States
DOBRIENT Byrne
-3031-----------
Flag United States
FREEBURN Cobe
-3216-----------
Flag United States
GOMEZ VILLAFANE Benjamin
--113----------
Flag United States
FUNSTON Scott
--27----------
Flag United States
NOEL Sam
--46----------
Flag United States
GUNSALUS Gregory
--58----------
Flag United States
MAHER Lane
--62----------
Flag United States
WOOD Calder
--75----------
Flag United States
BICKMORE Torin
--8-----------
Flag United States
JONES Henry
--910----------
Flag United States
BROWN Sam
--10-----------
Flag United States
WILLIAMS Kelton
--11-----------
Flag United States
KEANE Calvin
--13-----------
Flag United States
HAYES Noah
--14-----------
Flag United States
WATSON Campbell
--1726----------
Flag United States
RAWLS Amai
--1833----------
Flag United States
MCFADDEN Max
--19-----------
Flag United States
BRINK Ian
--20-----------
Flag United States
BROOKS Camden
--2111----------
Flag United States
VAHLBERG Joshua
--22-----------
Flag United States
RITZOW Max
--23-----------
Flag United States
LEPELCH Julian
--24-----------
Flag United States
POURMEHR Kaveh
--25-----------
Flag United States
LUKENS Joseph
--2627----------
Flag United States
GONG Dylan
--27-----------
Flag United States
TRUMBULL Caleb
--28-----------
Flag United States
SEITZ William
--29-----------
Flag United States
JEFFERSON Gentry
--DNF28----------
Flag United States
STEPHENSON Denzel
---12---------
Flag United States
ELLWOOD Ross
---38---------
Flag United States
SWARTZ Caleb
---47---------
Flag United States
SOTEBEER Drew
---916---------
Flag United States
LOGUE Sebastian
---1221---------
Flag United States
CLOUSE Evan
---145---------
Flag United States
MCCORMACK Alex
---15----------
Flag United States
BOOTS Kendrick
---16----------
Flag United States
BIRKY Donovan
---1726---------
Flag United States
SCHULZ George
---1814---------
Flag United States
GOGUEN Kevin
---1922---------
Flag United States
BUCHANAN Brayden
---2015---------
Flag United States
MYLES Mark
---2157---------
Flag United States
BRUNNER Nolan
---22----------
Flag United States
POWERS Ben
---23----------
Flag United States
VAUGHN Daniel
---24----------
Flag United States
SEIB Donald
---2532---------
Flag United States
CAMPBELL Alex
---29----------
Flag United States
AITTANIEMI Ryan
---3030---------
Flag United States
HECHT Gage
----11--------
Flag United States
BRUNNER Eric
----312--------
Flag United States
PETROV Spencer
----414--------
Flag United States
BEARD Cameron
----63--------
Flag United States
OWENS Michael
----9---------
Flag United States
BICKMORE Cade
----109--------
Flag United States
TANNER Jack
----1113--------
Flag United States
MCGILL Scott
----12---------
Flag United States
BROOKSHIRE Colton
----1334--------
Flag United States
ANDERSON Joshua
----1721--------
Flag United States
BAILEY Cassidy
----18---------
Flag United States
COPPOLILLO Henry
----19---------
Flag United States
GREATHOUSE Tristan
----20---------
Flag United States
LEWIS Jordan
----2317--------
Flag United States
WARNER Jack
----24---------
Flag United States
BEIRNE Nicholas
----25---------
Flag United States
SCOTT Cameron
----27---------
Flag United States
DAVIS Cole
----28---------
Flag United States
STORM Ethan
----2920--------
Flag United States
HALEY Gavin
-----212-------
Flag United States
BLEVINS Christopher
-----4--------
Flag United States
WILLSEY Cooper
-----57-------
Flag United States
KEOUGH Ian
-----623-------
Flag United States
REYNOLDS Ethan
-----74-------
Flag United States
FIX Brannan
-----810-------
Flag United States
DUFOUR Jerry
-----10--------
Flag United States
DUNN Liam
-----1117-------
Flag United States
SANDUSKY Rob
-----1531-------
Flag United States
DUNN Cormac
-----1622-------
Flag United States
MCKNIGHT Stuart
-----1820-------
Flag United States
HAIDET Lance
-----196-------
Flag United States
FREEMAN Maxl
-----22--------
Flag United States
WATKINS Ben
-----23--------
Flag United States
BROWNE Tanner
-----2421-------
Flag United States
WILSON Ian
-----2534-------
Flag United States
FRANCISCO James
-----26--------
Flag United States
BROWN Jonathan
-----2727-------
Flag United States
BOTTS Peter
-----28--------
Flag United States
HEUSER Andy
-----29--------
Flag United States
JOHNSON William
-----30--------
Flag United States
GOGUEN Peter
------13------
Flag United States
CHANCE Maxx
------27------
Flag United States
VINCENT Austin
------3-------
Flag United States
ELLWOOD Grant
------5-------
Flag United States
BRADY Nolan
------89------
Flag United States
GERCHAR Garrett
------912------
Flag United States
MCSHANE Ian
------11-------
Flag United States
COLTON Javier
------13-------
Flag United States
MEADVANCORT Jonah
------14-------
Flag United States
WHITTEMORE Nevin
------1519------
Flag United States
EARL Liam
------16-------
Flag United States
WEIK Josey
------186------
Flag United States
BECKNER Landen
------19-------
Flag United States
CHRISTIANSEN Joe
------24-------
Flag United States
NYSTROM Anders
------255------
Flag United States
RICE Byron
------26-------
Flag United States
ANDERSON Jonathan
------2826------
Flag United States
HOGAN Ben
------29-------
Flag United States
BLOESSER Kyle
------30-------
Flag United States
OWEN Logan
-------11-----
Flag United States
WHITE Curtis
-------25-----
Flag United States
LOMBARDO David
-------4------
Flag United States
MCPHERSON Ian
-------817-----
Flag United States
HAUPT Ian
-------10------
Flag United States
SCHWARTZ Tyler
-------11------
Flag United States
DYGERT Gunner
-------13------
Flag United States
FRANCISCO John
-------14------
Flag United States
VANCE Dylan
-------15------
Flag United States
GAGE Earl
-------1631-----
Flag United States
FUROIS Ethan
-------17------
Flag United States
HALL Douglas
-------18------
Flag United States
SOTEBEER Keegan
-------20------
Flag United States
CATLIN Colin
-------2137-----
Flag United States
MACKEY Skyler
-------22------
Flag United States
TORRACA Nicholas
-------23------
Flag United States
BASSETT Stephen
-------249-----
Flag United States
MCQUEEN Nolan
-------2529-----
Flag United States
HART David
-------2739-----
Flag United States
ROTH Garrett
-------28------
Flag United States
HEMMING Eli
-------29------
Flag United States
BAILEY Andrew
-------3030-----
Flag United States
DELINS Andris
-------3227-----
Flag United States
TANKERSLEY Nolan
-------3323-----
Flag United States
DOWNING Spencer
-------3713-----
Flag United States
ORTENBLAD Tobin
--------28----
Flag United States
GORRY Richard Cypress
--------34----
Flag United States
DILLMAN Andrew
--------43----
Flag United States
GODBY Zane
--------69----
Flag United States
MORSE Nathaniel
--------7-----
Flag United States
CULLEN Jordan
--------8-----
Flag United States
O'KEEFE Sam
--------106----
Flag United States
HALEY Luke
--------1111----
Flag United States
ROCHELEAU Lionel
--------12-----
Flag United States
DICKENS Chase
--------14-----
Flag United States
DICKEY Ansel
--------15-----
Flag United States
ANDERSON Dag
--------16-----
Flag United States
LABECKI Nathan
--------18-----
Flag United States
GOULD Zack
--------19-----
Flag United States
DUNLAP Colin
--------20-----
Flag United States
BENDER Zach
--------2119----
Flag United States
DOBROZSI Samuel
--------2218----
Flag United States
DIETRICH Nick
--------24-----
Flag United States
MILLER Kyle
--------2524----
Flag United States
OSBORNE Christopher
--------26-----
Flag United States
KEENER Joshua
--------2828----
Flag United States
BAHNSON Jeffrey
---------12---
Flag United States
FOX Bjorn
---------26---
Flag United States
BERGEY Gunnar
---------516---
Flag United States
HOWARD Alex
---------7----
Flag United States
PREBLE Kolben
---------109---
Flag United States
MACCLARENCE Jack
---------12----
Flag United States
DILLARD Brandon
---------13----
Flag United States
SEMIAN Zach
---------14----
Flag United States
COPLEA Tyler
---------15----
Flag United States
RENWICK Evan
---------1620---
Flag United States
SPRAGUE Cole
---------1730---
Flag United States
DARVILLE Alex
---------20----
Flag United States
ARTNER Adam
---------21----
Flag United States
READ Callum
---------22----
Flag United States
MULLANE Johnny
---------23----
Flag United States
SU Andy
---------25----
Flag United States
ADAMS Cary
---------26----
Flag United States
JAYNES Timothy
---------27----
Flag United States
ANDERSON Kaleb
---------29----
Flag United States
HIBNER-HEREFORD Ayden
---------30----
Flag United States
YAMAMOTO David
---------3429---
Flag United States
KAISER Cody
----------14--
Flag United States
TRUJILLO Skyler
----------316--
Flag United States
WALLACE Chris
----------45--
Flag United States
BURTON John
----------5---
Flag United States
BENNETT Andrew
----------7---
Flag United States
FETTE J.D.
----------8---
Flag United States
SPINKS Matt
----------10---
Flag United States
SIEGEL Bob
----------11---
Flag United States
KEOUGH Jesse
----------1214--
Flag United States
TEMPLETON Andrew
----------1326--
Flag United States
COTTLE Tanner
----------1418--
Flag United States
RADER William
----------15---
Flag United States
SWEDBERG Benny
----------178--
Flag United States
PACKARD Ryan
----------18---
Flag United States
PSALTIS Kosta
----------1922--
Flag United States
BELL Nick
----------21---
Flag United States
CUTRIGHT Cole
----------2230--
Flag United States
BERTIGER Ben
----------23---
Flag United States
HANLON Charles
----------24---
Flag United States
MORRIS Peter
----------25---
Flag United States
JOHNSON Kendal
----------26---
Flag United States
MONAGHAN Benjamin
----------27---
Flag United States
TAPLEY Cody
----------28---
Flag United States
MCDONALD Zach
-----------12-
Flag United States
KEOUGH Luke
-----------21-
Flag United States
MANNION Gavin
-----------36-
Flag United States
GOGUEN Manny
-----------620-
Flag United States
EMSKY Eric
-----------73-
Flag United States
COX Cody
-----------9--
Flag United States
RYAN Morgan
-----------10--
Flag United States
DOMBROWSKI Joseph Lloyd
-----------11--
Flag United States
TERRY Ian
-----------1215-
Flag United States
BARKER Andrew
-----------1322-
Flag United States
WATSON-NORRIS Gabe
-----------15--
Flag United States
HINKENS Jack
-----------17--
Flag United States
BROWN Nathan
-----------1910-
Flag United States
EDWARDS Alex
-----------2023-
Flag United States
HUSTON Collin
-----------2128-
Flag United States
ARNOLD Jacob
-----------23--
Flag United States
SHIPMAN John
-----------2429-
Flag United States
BLOCK David
-----------25--
Flag United States
WILLIAMS Daniel
-----------27--
Flag United States
PENCE Matt
-----------28--
Flag United States
FEEHERY Brandon
-----------29--
Flag United States
FISHER Steve
------------412
Flag United States
LLEWELLYN Andrew
------------511
Flag United States
FERGUSON Jeremy
------------733
Flag United States
BRADLEY Patrick
------------820
Flag United States
RATHE Jacob
------------9-
Flag United States
O'LEARY Connor
------------11-
Flag United States
OMER Clayton
------------129
Flag United States
PARKE Adam
------------13-
Flag United States
HURST Chris
------------1428
Flag United States
MILLER Ryan
------------16-
Flag United States
PORTER Ty
------------17-
Flag United States
BUSH Robert
------------1827
Flag United States
BERRY Joshua
------------19-
Flag United States
DOOLEY Matthew
------------21-
Flag United States
GRAVER Bryen
------------24-
Flag United States
QUINONES Alexander
------------25-
Flag United States
LEIBOVITZ Adam
------------26-
Flag United States
JOURDAIN Didier
------------2716
Flag United States
BELL Ethan
------------30-
Flag United States
SUMMERHILL Daniel
-------------1
Flag United States
GILMOUR Ethan
-------------2
Flag United States
PHINNEY Taylor
-------------3
Flag United States
BAX Nick
-------------4
Flag United States
KEOUGH Nicholas
-------------5
Flag United States
TOWNSEND Jerome
-------------6
Flag United States
CLARK Oscar
-------------7
Flag United States
MILLER Carson
-------------8
Flag United States
THOMPSON Eric
-------------10
Flag United States
LENNON Jim
-------------13
Flag United States
MACDONALD Jimmy
-------------14
Flag United States
WORSECH Sean
-------------15
Flag United States
CARPENTER Gregory
-------------17
Flag United States
PETERSON Chris
-------------18
Flag United States
PERLEY Bradford
-------------19
Flag United States
ADAMS Zachary
-------------21
Flag United States
DELISSER Marcel
-------------22
Flag United States
SALLEE Connor
-------------23
Flag United States
MORRIS Allen
-------------24
Flag United States
LAHMANN Josh
-------------25
Flag United States
KRISTIANSEN Erik
-------------26
Flag United States
FISHKIN Dan
-------------29
Flag United States
MICHIELSEN Bill
-------------30