13 December 2020
Iowa City, IO, United States
 
19-20
CN
18-19
CN
17-18
CN
16-17
CN
15-16
CN
14-15
CN
13-14
CN
12-13
CN
11-12
CN
10-11
CN
09-10
CN
08-09
CN
07-08
CN
06-07
CN
Flag United States
HECHT Gage
13------------
Flag United States
WHITE Curtis
225-----------
Flag United States
HYDE Stephen
31112616-------
Flag United States
WERNER Kerry
46335911-------
Flag United States
HAIDET Lance
5-------------
Flag United States
DILLMAN Andrew
64------------
Flag United States
OWEN Logan
7---3---------
Flag United States
ELLWOOD Grant
810------------
Flag United States
DRISCOLL James
9-13268437462--
Flag United States
CHANCE Maxx
1022------------
Flag United States
KAISER Cody
11191191026--14-----
Flag United States
LIVERMON Travis
12-10-816--9-----
Flag United States
FIX Brannan
13-------------
Flag United States
ORTENBLAD Tobin
14-45----------
Flag United States
CUPP Cody
15-26-----------
Flag United States
LANDO Nicholas
16-------------
Flag United States
BRADFORD-PARISH Kevin
17-19162229---78-232123
Flag United States
NADELL Henry
18-------------
Flag United States
DAVOUST Stephan
19-15-----------
Flag United States
GINIAT Andrew
2016------------
Flag United States
JACK Rory
21-------------
Flag United States
BABCOCK Sean
22-22----241614233417-
Flag United States
THOMPSON Eric
237-22-144623------
Flag United States
FREDERICK Ben
24---1218--------
Flag United States
DECKER Carl
25----31---181127--
Flag United States
CLOUTIER Tyler
2614283246---------
Flag United States
SCHROEDER Allan
272820-----------
Flag United States
BORDEN Andrew
28-------------
Flag United States
RYAN Alex
2918-35272134--69----
Flag United States
ANDERSON Jonathan
3029------------
Flag United States
DIREEN Josh
323425-----------
Flag United States
PURSELL Terol
3420------------
Flag United States
NICHOLAS Andrew
3624------------
Flag United States
CAMERON Molly
38--------4450282322
Flag United States
SELANDER Bjorn
42261815----------
Flag United States
MARION Robert
49--2125251737------
Flag United States
POWERS Jeremy
-5224111613519105
Flag United States
CLARK Anthony
-8172516131215------
Flag United States
DAVIS Merwin
-9-14----------
Flag United States
KISSEBERTH Jack
-116411---------
Flag United States
COWIE Tristan
-127171520--------
Flag United States
KRUGHOFF Allen
-1381014195282119----
Flag United States
MATTER Brian
-15---12-1213-----
Flag United States
O'KEEFE Sam
-17-30----------
Flag United States
POSTIER Dylan
-21-2639-76-------
Flag United States
GERCHAR Garrett
-23------------
Flag United States
KIEFFER Samuel
-25------------
Flag United States
LINDINE Justin
-271212131081311113915DNF-
Flag United States
WULFKUHLE Andrew
-30------33----65
Flag United States
JUDELSON Max
-3327294843--------
Flag United States
MYERSON Adam
-36--2922-30183321321616
Flag United States
LEHMAN Brendan
-4229-----------
Flag United States
SMITH Scott
-DNF1613----------
Flag United States
CHABANOV Daniel
-DNF-1923-26354056----
Flag United States
PAGE Jonathan
--9742613-3322
Flag United States
WELLS Troy
--14-21710824311312527
Flag United States
MCPHERSON Ian
--21-----------
Flag United States
GREIF David
--23-----------
Flag United States
WILD Alex
--24-----------
Flag United States
CURTIS Zachary
--30-----------
Flag United States
ECKMANN Yannick
---69---------
Flag United States
WELLS Todd
---8-----14634
Flag United States
DURRIN Jeremy
---111824189------
Flag United States
JUILIANO Andrew
---182436--------
Flag United States
HILDEBRANDT Casey
---20----------
Flag United States
TRUJILLO Skyler
---23-44--------
Flag United States
SNYDER Jordan
---2743---------
Flag United States
MCCORMACK Brendan
---28----------
Flag United States
TIMMERMAN Dan
---332853214--8---
Flag United States
WELLS Jake
---36261713272323122018-
Flag United States
SUMMERHILL Daniel
---4017474------
Flag United States
TREBON Ryan
----711272221DNF1
Flag United States
MCDONALD Zach
----193-24-----
Flag United States
ALLEN Tim
----20-19253928----
Flag United States
UHL Tristan
----3042--------
Flag United States
NIETERS Jared
----34393526-36----
Flag United States
MCNICHOLAS Dylan
----3740--8-----
Flag United States
GAFFNEY Lewis
----4230--------
Flag United States
KAPPIUS Brady
----44342221222224---
Flag United States
TOWNSEND Jerome
-----1537-12-----
Flag United States
FAVATA Christian
-----23--------
Flag United States
FISHER Steve
-----27--------
Flag United States
NEFF Isaac
-----28-1142-----
Flag United States
SITLER Jacob
-----332751------
Flag United States
JOHNSON Timothy
------35551513
Flag United States
SCHOUTEN Tristan
------919258--815
Flag United States
WICKS Barry
------141015691346
Flag United States
STEVENSON Russell
------15--29-21--
Flag United States
ALDERS Bryan
------20-------
Flag United States
MALONEY Joseph
------21-------
Flag United States
CASE Christopher
------23-----3958
Flag United States
IAIA William
------243347-----
Flag United States
STEFKO Steven
------25-------
Flag United States
CLEMENZI Joseph
------28-------
Flag United States
BRADFORD Aaron
------2946452738---
Flag United States
TONKIN Eric
------302019162816914
Flag United States
CARRINGTON Taylor
------3322----2017
Flag United States
HOKE Mitchell
------36181013----
Flag United States
STELLJES Corey
------384030-----
Flag United States
KEOUGH Nicholas
------583817-----
Flag United States
CRAIG Adam
-------16-77---
Flag United States
PAXSON Spencer
-------17-125233--
Flag United States
SHERER Mike
-------29------
Flag United States
JONES Christopher
--------615101411-
Flag United States
SCHEMPF Weston
--------2039101221938
Flag United States
WEBBER Peter
--------262022---
Flag United States
DWIGHT Brandon
--------27241929-32
Flag United States
SHRIVER Matt
--------28-16730-
Flag United States
FREDERICK Scott
--------294670---
Flag United States
ROBINSON Justin
--------314330301549
Flag United States
CARIVEAU Jon
--------41--4926-
Flag United States
CANDELARIO Alexander
---------9----
Flag United States
ANTHONY Jesse
---------1014413-
Flag United States
DILLON Joshua
---------1733---
Flag United States
PACOCHA Matt
---------2132-1424
Flag United States
WREN Tyler
---------25-242429
Flag United States
MCGRATH Adam
---------2625---
Flag United States
SPITERI Frank
---------3040---
Flag United States
IDDINGS Ryan
---------341838-36
Flag United States
TILFORD Steve
---------35-182912
Flag United States
LUELLING Brett
---------5529---
Flag United States
BOTTGER Frederick
---------71--27-
Flag United States
WEIGHALL Nicholas
----------15---
Flag United States
BAKER Jonathan
----------17--11
Flag United States
DUGAN William
----------20---
Flag United States
LALONDE Mark
----------261151-
Flag United States
BRODERICK Michael
----------27---
Flag United States
JACQUES-MAYNES Andy
-----------8610
Flag United States
SPINELLI Justin
-----------9DNF13
Flag United States
BISHOP Jeremiah
-----------10--
Flag United States
WORAS Solomon
-----------17--
Flag United States
GILLESPIE Bart
-----------257-
Flag United States
KRIEG Sam
-----------263630
Flag United States
KRAUS Matt
-----------353821
Flag United States
GOULET Ali
-----------4012-
Flag United States
SUNDT Jonathan
------------22-
Flag United States
EASTER Michael
------------2548
Flag United States
KILGORE Troy
------------28-
Flag United States
WHITE Matthew
------------338
Flag United States
PRENZLOW Brent
------------4519
Flag United States
HAMBLEN Jonathan
------------DNF20
Flag United States
PENDRY Charles
------------DNF26
Flag United States
JACQUES-MAYNES Ben
-------------7
Flag United States
MCCORMACK Mark
-------------9
Flag United States
GILLESPIE Stuart
-------------18
Flag United States
HORNER Christopher
-------------25
Flag United States
SKERRITT Shannon
-------------28