21-22
C2
20-21
C2
19-20
C2
18-19
C2
17-18
C2
16-17
C2
15-16
C2
14-15
C2
13-14
C2
12-13
C2
09-10
C2
08-09
C2
07-08
C2
06-07
C2
Flag Belgium
VANTHOURENHOUT Michael
13---615--10----
Flag Belgium
ISERBYT Eli
21------------
Flag Belgium
SWEECK Laurens
35---15195-----
Flag Switzerland
KUHN Kevin
413------------
Flag Belgium
VANDEPUTTE Niels
58------------
Flag Switzerland
RÜEGG Timon
610------------
Flag Belgium
ADAMS Jens
775--8--------
Flag Belgium
WYSEURE Joran
89------------
Flag Belgium
VANDEBOSCH Toon
9DNF--14---------
Flag Belgium
SOETE Daan
10--7-16--------
Flag Belgium
AERTS Thijs
11---9---------
Flag Belgium
LOOCKX Lander
121213-----------
Flag Belgium
BEKAERT Yentl
13DNF------------
Flag Netherlands
KAMP Ryan
14DNF------------
Flag Belgium
MEEUSEN Tom
1524-31214-193----
Flag Netherlands
VAN KESSEL Corné
164----11-------
Flag France
MENUT David
17-------------
Flag Netherlands
GODRIE Stan
1833---17--------
Flag Belgium
WUYTS Mathijs
19-10-----------
Flag Belgium
SIEMONS Julian
2023-17----------
Flag Belgium
NYS Thibau
2118------------
Flag Italy
MASCIARELLI Lorenzo
22-------------
Flag Netherlands
HENDRIKX Mees
2311------------
Flag Belgium
VRACHTEN Arne
24-------------
Flag France
THOMAS Théo
25-------------
Flag Belgium
BAERS Arne
2619------------
Flag France
CRISPIN Mickaël
27DNF--35---------
Flag Belgium
UYTDEWILLIGEN Ingmar
2825-----263323----
Flag Switzerland
MOTTIEZ Gilles
29-------------
Flag Belgium
VANDERLINDEN Lukas
30-------------
Flag Netherlands
VAN DIJKE Koen
31261815----------
Flag Belgium
VAN COMPERNOLLE Kenneth
34-----2519------
Flag Belgium
BAESTAENS Vincent
DNF158DNF-141371814----
Flag Belgium
VERVOORT Wout
DNF21------------
Flag Belgium
SWEECK Diether
DNF--9DNF139-23-----
Flag Belgium
AERTS Toon
-2--235-------
Flag Netherlands
VAN DER HAAR Lars
-6----8-------
Flag Belgium
MEEUSSEN Witse
-14------------
Flag Netherlands
AGTERBERG Kyle
-16------------
Flag Netherlands
RONHAAR Pim
-17------------
Flag Great Britain
MEIN Thomas
-20--29---------
Flag Belgium
VERSTRYNGE Emiel
-22------------
Flag Switzerland
ROUILLER Loris
-27------------
Flag Belgium
DEJONGHE Len
-28-24----------
Flag Belgium
PEMEN Dolf
-29-36----------
Flag Belgium
GYS Jens
-30------------
Flag Belgium
VAN LOOVEREN Joachim
-3221-----------
Flag Netherlands
VAN DER POEL David
-DNF--47-813-----
Flag Belgium
AERNOUTS Jim
-DNF---912-------
Flag Netherlands
VAN DER POEL Mathieu
--11--2212-----
Flag Belgium
HERMANS Quinten
--223--1422-----
Flag Great Britain
PIDCOCK Tom
--34----------
Flag Belgium
BOSMANS Wietse
--4-DNF--3-8----
Flag Czech Republic
STYBAR Zdenek
--6-----------
Flag Germany
MEISEN Marcel
--786DNF-61612----
Flag Belgium
VANTHOURENHOUT Dieter
--9510418-97353-
Flag Great Britain
MASON Cameron
--11-----------
Flag Belgium
VAN DEN BROECK Arno
--12-----------
Flag Belgium
LIESSENS Jarno
--14-----------
Flag Belgium
SIEBENS Gianni
--1526----------
Flag Belgium
PEETERS Yannick
--1612----------
Flag Belgium
DE VET Sander
--1711----------
Flag Netherlands
VERBURG Luke
--19-----------
Flag Netherlands
ARTZ Bart
--2019----------
Flag United States
WERNER Kerry
--2213----------
Flag Belgium
DE MEYER Senne
--23-28---------
Flag Belgium
VERBEECK Glenn
--24-----------
Flag Belgium
PEERS Nick
--253130---------
Flag Belgium
VLIEGEN Pieter-Jan
--2618----------
Flag Belgium
LEARTS Yelle
--2730----------
Flag Germany
MÖBIS Maximilian
--28-----------
Flag Luxembourg
KOCKELMANN Raphaël
--29-----------
Flag Belgium
VANDEN BUSSCHE Wannes
--30-----------
Flag Belgium
VAN STAEYEN Maarten
--3134-24--------
Flag Belgium
CLEPPE Nicolas
---6----------
Flag Belgium
VANDEBOSCH Victor
---1021---------
Flag Belgium
ROMBOUTS Seppe
---14----------
Flag Belgium
LEMMENS Sander
---16----------
Flag Belgium
DE SMET Thibaut
---20----------
Flag Belgium
VAN TICHELT Yorben
---21----------
Flag Belgium
JOSEPH Thomas
---22---25------
Flag Netherlands
BAKX Kelvin
---23----------
Flag Belgium
JORDENS Jarno
---25----------
Flag Belgium
TIELEN Dario
---2718---------
Flag France
TROPARDY Arthur
---28----------
Flag Netherlands
VAN DIJKE Mick
---29----------
Flag Belgium
ALDERWEIRELD Robin
---3326---------
Flag Belgium
MERLIER Braam
---DNF13---------
Flag Belgium
VAN AERT Wout
----1-2-------
Flag Belgium
MERLIER Tim
----557-------
Flag Belgium
VERMEERSCH Gianni
----71016-------
Flag Belgium
PEETERS Rob
----82613368-1-
Flag Belgium
ADAMS Joeri
----111114415-----
Flag Belgium
SMETS Gert
----15---------
Flag United States
HECHT Gage
----16---------
Flag Spain
RUIZ DE LARRINAGA IBANEZ Javier
----17-23-------
Flag Switzerland
JACOBS Johan
----19---------
Flag Netherlands
VAN AMERONGEN Thijs
----20---12-----
Flag Netherlands
VAN LEEUWEN Patrick
----22--24------
Flag Belgium
DRIESEN Jarne
----23---------
Flag France
TRIGO Florian
----24---------
Flag Belgium
VERMEERSCH Florian
----25---------
Flag Belgium
PAUWELS Tijl
----27---------
Flag Netherlands
BOER Erik
----4623--------
Flag Belgium
PAUWELS Kevin
-----12102------
Flag Belgium
HOEYBERGHS Daan
-----18--------
Flag Belgium
HENNAUX Loïc
-----19--------
Flag United States
THOMPSON Eric
-----20--------
Flag Belgium
DE PROOST Kyle
-----21--------
Flag Belgium
KAISE Julien
-----22--------
Flag Ireland
KINNING Glenn
-----25--------
Flag Spain
RODRIGUEZ GARCIA Jorge
-----26--------
Flag Spain
FUENTES SANCHEZ Félix
-----27--------
Flag Spain
MARTIN JIMENEZ Manuel
-----28--------
Flag Spain
JIMÉNEZ RODRIGUEZ Fernando
-----29--------
Flag Czech Republic
BOROS Michael
-----DNF19-------
Flag Belgium
NYS Sven
------3-41--51
Flag United States
HYDE Stephen
------17-------
Flag Netherlands
VAN DEN BRAND Twan
------20-------
Flag Netherlands
WUBBEN Niels
------21-------
Flag Germany
WALSLEBEN Philipp
------241265-34--
Flag Belgium
VANTHOURENHOUT Sven
------26-------
Flag Belgium
CANT Kevin
------27-25-----
Flag Belgium
DE CLEYN Dave
------28-------
Flag France
MARECAILLE Antonin
------29-32-----
Flag Belgium
VENS Quincy
------30-----25-
Flag Switzerland
TARAMARCAZ Julien
-------5------
Flag Belgium
WELLENS Bart
-------10-24-1--
Flag Czech Republic
BINA Martin
-------117-----
Flag Belgium
BRAET Vinnie
-------15------
Flag Belgium
BERDEN Ben
-------16---8--
Flag Belgium
GAUDY Patrick
-------1717-----
Flag Belgium
HUYS Stijn
-------1824-----
Flag United States
PAGE Jonathan
-------20-206--5
Flag Italy
BERTOLINI Gioele
-------21------
Flag Czech Republic
PETRUS Lubomir
-------221416-17--
Flag France
MOUREY Francis
-------231041---
Flag Belgium
VAN DEN BOSCH Tom
-------27------
Flag Great Britain
SPRAGG James
-------2837-----
Flag Belgium
BRACKMAN Jelle
-------29--28---
Flag Belgium
TEIRLINCK Jens
-------30------
Flag Belgium
KOYEN Niels
-------313030----
Flag Belgium
RONDELEZ Bjorn
-------32-----13
Flag Belgium
ALBERT Niels
--------12-10--
Flag Belgium
AERNOUTS Bart
--------8-----
Flag Italy
FRANZOI Enrico
--------11-4---
Flag Poland
GIL Mariusz
--------20-1620-15
Flag Belgium
HOFMAN Joeri
--------21-----
Flag Belgium
VANSPEYBROUCK Pieter
--------2628----
Flag Denmark
PEDERSEN Jonas
--------27-----
Flag Belgium
HOFMAN Bart
--------28-----
Flag Spain
INSAUSTI IRASTORZA Jon Ander
--------29-----
Flag Czech Republic
SIMUNEK Radomir
---------92324
Flag France
DUVAL Aurelien
---------11----
Flag Netherlands
BOOM Lars
---------13----
Flag France
ALAPHILIPPE Julian
---------15----
Flag France
PION Julien
---------17----
Flag Czech Republic
ZLAMALIK Martin
---------1812---
Flag Belgium
COMMEYNE Davy
---------19--7-
Flag Belgium
BEELEN Sven
---------21----
Flag Belgium
EECKHOUT Kevin
---------22----
Flag Belgium
DE DECKER Steven
---------252433--
Flag Belgium
VAN DE VELDE Matthias
---------26----
Flag Denmark
HANSEN Kenneth
---------27----
Flag Belgium
COP Kristof
---------29----
Flag Czech Republic
DLASK Petr
----------5---
Flag Netherlands
DE KNEGT Gerben
----------764-
Flag France
DEREPAS David
----------9---
Flag France
GADRET John
----------10---
Flag Netherlands
AL Thijs
----------11-8-
Flag United States
DRISCOLL James
----------13241435
Flag Belgium
SOETENS Jan
----------14196-
Flag Belgium
WELLENS Geert
----------1518--
Flag United States
POWERS Jeremy
----------1721-12
Flag Belgium
VERSCHUEREN Bart
----------18-27-
Flag United States
WELLS Troy
----------19---
Flag Belgium
VEESTRAETEN Ruben
----------20---
Flag Belgium
VANNOPPEN Tom
----------21---
Flag Belgium
VAN DEN BRANDE Kay
----------22-16-
Flag Belgium
VAN NUFFEL Tim
----------2314--
Flag Belgium
PENNE Stijn
----------2523119
Flag United States
MATTER Brian
----------2635--
Flag Belgium
LIPPENS Brecht
----------2729--
Flag Belgium
BERVOETS Jonathan
----------29---
Flag Belgium
DENOLF Gianni
----------30---
Flag France
BOUCHER David
----------39-19-
Flag Belgium
VANTORNOUT Klaas
-----------2--
Flag Belgium
VERSTRAETEN Jan
-----------4--
Flag Belgium
VERVECKEN Erwin
-----------7--
Flag Netherlands
GROENENDAAL Richard
-----------9-3
Flag Czech Republic
AUSBUHER Kamil
-----------11--
Flag United States
TREBON Ryan
-----------1212-
Flag United States
BAKER Jonathan
-----------13--
Flag Czech Republic
KLOUCEK Lukas
-----------15--
Flag Belgium
WILLEMSENS David
-----------16-6
Flag United States
SUMMERHILL Daniel
-----------2223-
Flag Spain
YUS KEREJETA Unai
-----------25--
Flag United States
CAMERON Molly
-----------262827
Flag Belgium
BERCKMANS Nico
-----------2710-
Flag Belgium
ONGENA Matthias
-----------28--
Flag Spain
ARMERO SANCHEZ Santiago
-----------30--
Flag Belgium
BASSEZ Patrick
-----------3120-
Flag Poland
CICHOSZ Marek
------------917
Flag Belgium
DAELMANS Arne
------------137
Flag Poland
JANISZEWSKI Sylwester
------------15-
Flag Poland
REPINSKI Tomasz
------------17-
Flag Belgium
DE WISPELAERE Bert
------------18-
Flag United States
WEIGHALL Nicholas
------------2132
Flag Belgium
DE CALUWE Steven
------------2224
Flag United States
SCHOUTEN Tristan
------------24-
Flag Belgium
MEIRHAEGHE Filip
------------26-
Flag Belgium
DE WAELE Bert
------------29-
Flag Belgium
SIJMENS Nico
------------30-
Flag France
LEFEBVRE Maxime
-------------2
Flag Czech Republic
MLYNAR Zdenek
-------------8
Flag Netherlands
MUTSAARS Ronald
-------------10
Flag United States
WICKS Barry
-------------11
Flag Poland
GIL Dariusz
-------------14
Flag United States
TONKIN Eric
-------------16
Flag Belgium
ROODHOOFT Christoph
-------------18
Flag Canada
REAIN Greg
-------------19
Flag Belgium
CLARYSSE Nico
-------------20
Flag United States
WELLS Todd
-------------21
Flag Great Britain
BIBBY Ian
-------------22
Flag United States
SELANDER Bjorn
-------------23
Flag Belgium
DE VOCHT Wim
-------------25
Flag Belgium
TRAEN Bjorn
-------------26
Flag United States
SCHMITT Morgan
-------------28
Flag Belgium
INGELS Nic
-------------29
Flag Poland
MUDYN Lukasz
-------------30