24 October 2020
Ruddervoorde, Belgium
 
20-21
CJ
19-20
CJ
18-19
CJ
17-18
CJ
16-17
CJ
15-16
CJ
14-15
CJ
13-14
CJ
12-13
CJ
11-12
CJ
10-11
CJ
09-10
CJ
08-09
CJ
07-08
CJ
Flag Belgium
MICHELS Jente
11------------
Flag Belgium
DOCKX Aaron
2-------------
Flag Belgium
HARTEEL Jelle
3-------------
Flag Italy
MASCIARELLI Lorenzo
4-------------
Flag Czech Republic
STRANSKY Matej
5-------------
Flag Czech Republic
KOPECKY Matyas
613------------
Flag Belgium
AVONDTS Mathis
7DNF------------
Flag Belgium
KUYPERS Milan
824------------
Flag Belgium
DE BRUYCKERE Kay
9-------------
Flag Belgium
CEULEMANS Niels
10-------------
Flag Belgium
GEERAERTS Ferre
11-------------
Flag Czech Republic
FIALA Matyás
127------------
Flag Belgium
DE MOYER Kenay
13-------------
Flag Belgium
ROMMELAERE Iben
14-------------
Flag Belgium
CEUSTERS Rune
15-------------
Flag Belgium
HEYMANS Aaron
16-------------
Flag Belgium
VAN DER HEYDEN Dario
17-------------
Flag Belgium
VAN DEN BROECK Lars
18-------------
Flag Belgium
VERSTRAELEN Wannes
19-------------
Flag Spain
SUAREZ FERNANDEZ Alain
20-------------
Flag Belgium
VANDERLINDEN Lukas
2144------------
Flag Belgium
VAN DER WILT Jorben
2258------------
Flag Belgium
DELAERE Brent
2327------------
Flag Belgium
DHONDT Robbe
24-------------
Flag Belgium
PAUWELS Pieter
2534------------
Flag Belgium
BELLON Damon
26-------------
Flag Belgium
BAERT Brent
27-------------
Flag Belgium
GEUDENS Robbe
28-------------
Flag Belgium
ERPELS Joppe
29-------------
Flag Belgium
VAN SCHAIK Arthur
30-------------
Flag Belgium
BELMANS Lennert
-25-----------
Flag Belgium
NYS Thibau
-3------------
Flag Belgium
VERSTRYNGE Emiel
-425-----------
Flag Belgium
HUYBS Ward
-58-----------
Flag Belgium
LAURYSSEN Yorben
-6------------
Flag Netherlands
ALVARADO Salvador
-813-----------
Flag Czech Republic
SULC David
-9------------
Flag Great Britain
WYLLIE Simon
-10------------
Flag Netherlands
KARS Hugo
-1111-----------
Flag Netherlands
VAN HOFTEN Levi
-1222-----------
Flag Belgium
CLARYSSE Elio
-14------------
Flag Netherlands
VAN LIEROP Danny
-15------------
Flag Belgium
VAN CAMPENHOUT Jetze
-1618-----------
Flag Netherlands
GROENENDAAL Bailey
-17------------
Flag Netherlands
DEL GROSSO Tibor
-18------------
Flag Netherlands
BRINKMAN Joost
-19------------
Flag Germany
NEFFGEN Tim
-20------------
Flag Belgium
VAN DE PUTTE Victor
-21------------
Flag Belgium
DE RIJCK Nando
-22------------
Flag Netherlands
JANSSEN Lucas
-23------------
Flag Belgium
GEURS Renzo
-25------------
Flag Netherlands
VAN DER DRIFT Twan
-2620-----------
Flag Belgium
DE MAERE Alessio
-2819-----------
Flag Belgium
DE ROECK Mathis
-29DNF-----------
Flag Belgium
DE VOS Sander
-3038-----------
Flag Belgium
VANPRAET Ruben
-4330-----------
Flag Belgium
MEEUSSEN Witse
--1-----------
Flag Belgium
CORTJENS Ryan
--2-----------
Flag Netherlands
RONHAAR Pim
--310----------
Flag Netherlands
VERBURG Luke
--47----------
Flag Belgium
WYSEURE Joran
--6-----------
Flag Belgium
VERVOORT Wout
--713----------
Flag Belgium
VERMOOTE Jelle
--922----------
Flag Belgium
PEIRENS Yente
--1018----------
Flag Netherlands
BOVEN Lars
--1216----------
Flag Netherlands
UPTEGROVE Pete
--1432----------
Flag France
TANGUY Maxan
--15-----------
Flag Belgium
DE LAET Tomas
--1636----------
Flag Belgium
VAN LOOVEREN Joachim
--17-----------
Flag Belgium
DEBAELE Jorre
--21-----------
Flag Netherlands
VREESWIJK Noah
--2325----------
Flag Belgium
TRIO Victor
--24-----------
Flag Netherlands
DELNOIJE Rémon
--2643----------
Flag Netherlands
VAN DEN BOOM Luca
--27-----------
Flag Netherlands
BUIJS Quinten
--28-----------
Flag Belgium
CALLEWAERT Andreas
--29-----------
Flag Belgium
VANPARIJS Tjorven
--3628----------
Flag Netherlands
KAMP Ryan
---1----------
Flag Czech Republic
KOPECKY Tomás
---28---------
Flag Belgium
VANDEPUTTE Niels
---33---------
Flag Belgium
BELLENS Jarno
---4----------
Flag Netherlands
ARTZ Bart
---512---------
Flag Netherlands
HENDRIKX Mees
---614---------
Flag Belgium
VAN DEN EYNDE Vince
---8----------
Flag Belgium
KUYPERS Gerben
---910---------
Flag Belgium
FERDINANDE Anton
---11----------
Flag Belgium
VAN DEN BROECK Arno
---129---------
Flag Belgium
DEJONGHE Len
---14----------
Flag Netherlands
DEL GROSSO Bodi
---15----------
Flag Belgium
BERVOETS Michael
---17----------
Flag Belgium
DEWULF Maxim
---1917---------
Flag Belgium
THYS Joren
---20DNF---------
Flag Belgium
VERDONCK Andres
---2121---------
Flag Belgium
CAS Stijn
---23----------
Flag Belgium
QUARTIER Jonas
---24----------
Flag Belgium
MALEZSEWSKI Lukas
---26----------
Flag Belgium
DE VET Sander
---2727---------
Flag Belgium
CLAUWAERT Maarten
---29----------
Flag Netherlands
HAZEKAMP Bart
---3022---------
Flag Netherlands
SEELEN Jurgen
---3326---------
Flag Belgium
CLYNHENS Jens
---3419---------
Flag Belgium
VANDEBOSCH Toon
----112--------
Flag Belgium
CAMPS Jelle
----2---------
Flag Great Britain
TURNER Ben
----4---------
Flag Belgium
BEKAERT Yentl
----530--------
Flag Belgium
GOEMAN Andreas
----6---------
Flag Belgium
DEBEIR Arno
----7---------
Flag Belgium
VERMEERSCH Florian
----115--------
Flag Belgium
VRACHTEN Arne
----1310--------
Flag Netherlands
VAN HELVOIRT Koen
----1539--------
Flag France
GUILLEMIN Nicolas
----16---------
Flag Belgium
VAN GILS Maxim
----1827--------
Flag Belgium
VANDERMEULEN Niels
----2038--------
Flag Netherlands
GEURTS Kyro
----23---------
Flag Belgium
JORDENS Jarno
----24---------
Flag Great Britain
YATES Harry
----25---------
Flag Belgium
DESCHEPPER Ward
----28---------
Flag Netherlands
LOOHUIS Lars
----29---------
Flag Belgium
DECOSTER Louis
----30---------
Flag Belgium
JASPERS Jappe
-----1--------
Flag Netherlands
WOLSINK Thijs
-----2--------
Flag Belgium
ROMBOUTS Seppe
-----37-------
Flag Netherlands
DEKKER Jens
-----4--------
Flag Belgium
COLMAN Alex
-----611-------
Flag Belgium
LIESSENS Jarno
-----712-------
Flag Belgium
DRIESEN Jarne
-----89-------
Flag Belgium
VANDEBOSCH Victor
-----9--------
Flag Italy
FOLCARELLI Antonio
-----11--------
Flag Italy
XILLO Edoardo
-----13--------
Flag Belgium
SIEBENS Gianni
-----14--------
Flag Czech Republic
JELINEK Josef
-----15--------
Flag Czech Republic
BREZINA Jonas
-----16--------
Flag Belgium
KIELICH Timo
-----17--------
Flag Germany
MÖBIS Maximilian
-----18--------
Flag Belgium
DE CLERCQ Jari
-----1914-------
Flag Belgium
WUYTS Mathijs
-----20--------
Flag Italy
BASSANI Michele
-----21--------
Flag Belgium
TIELEMANS Jente
-----22--------
Flag Belgium
SMET Jonas
-----23--------
Flag Czech Republic
SIRUCEK Vaclav
-----24--------
Flag Netherlands
ARENSMAN Thymen
-----25--------
Flag Czech Republic
HONZAK David
-----26--------
Flag Czech Republic
GAVENDA Jan
-----28--------
Flag Netherlands
AGTERBERG Kyle
-----29--------
Flag Belgium
ISERBYT Eli
------1-------
Flag Switzerland
JACOBS Johan
------2-------
Flag Netherlands
VAN DER HEIJDEN Maik
------39------
Flag Belgium
HERMANS Briek
------417------
Flag Belgium
BONNE Jenko
------5-------
Flag Belgium
LOOCKX Lander
------6-------
Flag Netherlands
FLOREN Wesley
------811------
Flag Germany
CORDS Ludwig
------10-------
Flag Belgium
DEVOS Han
------13-------
Flag Belgium
MUSEEUW Stefano
------1530------
Flag Belgium
BREUGELMANS Michiel
------1643------
Flag Belgium
BAUTERS Reno
------17-------
Flag France
DEGUEURCE Joffrey
------18-------
Flag Belgium
SMETS Gert
------19-------
Flag Belgium
QUARTIER Jens
------2031------
Flag Belgium
OVERMEIRE Louis
------21-------
Flag Belgium
SIEMONS Stijn
------2244------
Flag France
SIMON Quentin
------23-------
Flag Netherlands
MUSKENS Mart
------24-------
Flag Belgium
ROELANTS Jens
------2540------
Flag Netherlands
BOUWMANS Bryan
------26-------
Flag Belgium
MONTAIGNE Jorn
------2725------
Flag Belgium
PEMEN Diederik
------28-------
Flag Belgium
JAECQUES Simon
------2916------
Flag Belgium
BOUTEN Migel
------30-------
Flag Belgium
PEETERS Yannick
-------113-----
Flag Belgium
AERTS Thijs
-------218-----
Flag Belgium
CALUWE Stijn
-------3------
Flag Belgium
VAN HECKE Elias
-------46-----
Flag Belgium
VAN ROOSBROECK Pieter
-------526-----
Flag Belgium
JOSEPH Thomas
-------615-----
Flag Netherlands
JANSSEN Tim
-------727-----
Flag Belgium
VAN DE KERCKHOVE Nick
-------837-----
Flag Netherlands
WELTEN Bram
-------10------
Flag Netherlands
VAN DEN KLUNDERT Pim
-------12------
Flag Belgium
VERBRAKEN Jorn
-------1338-----
Flag United States
HALEY Gavin
-------14------
Flag Netherlands
JAKOBSEN Fabio
-------1541-----
Flag Belgium
TIBACKX Lawrence
-------1843-----
Flag United States
WEIK Josey
-------19------
Flag Belgium
CROLLET Yari
-------20------
Flag Belgium
DECLERCK Mathias
-------2134-----
Flag Belgium
JACOBS Sybren
-------22------
Flag Belgium
VERBERCKMOES Timo
-------23------
Flag Belgium
DRIESEN Sven
-------24------
Flag Netherlands
BOER Erik
-------26------
Flag Belgium
ALDERWEIRELD Robin
-------27------
Flag Netherlands
VAN BENNEKOM Kevin
-------28------
Flag Netherlands
BOUWMANS Dylan
-------29------
Flag Netherlands
VAN DER POEL Mathieu
--------13----
Flag Belgium
HERMANS Quinten
--------211----
Flag Belgium
CLEPPE Nicolas
--------317----
Flag Belgium
BOETS Ben
--------415----
Flag Netherlands
BUDDING Martijn
--------513----
Flag Belgium
DEGROOTE Jonas
--------736----
Flag Belgium
AMEEL Alexander
--------829----
Flag Belgium
VAN LAER Ward
--------9-----
Flag Belgium
GOOSSENS Kobe
--------10-----
Flag Netherlands
VAN DER HEIJDEN Bjorn
--------1118----
Flag Netherlands
JANSEN Richard
--------1245----
Flag Netherlands
WIJKEL Stan
--------14-----
Flag Belgium
SCHUERMANS Jelle
--------16-----
Flag France
HAVOT Sébastien
--------17-----
Flag Netherlands
VAN DIJKE Koen
--------19-----
Flag Belgium
DE BRAUWER Brend
--------2023----
Flag Belgium
POELVOORDE Arne
--------2131----
Flag Belgium
VAN HASSELT Lennert
--------22-----
Flag Belgium
MORTIER Lenny
--------2339----
Flag Belgium
PEETERS Vincent
--------24-----
Flag Belgium
GORRENS Seppe
--------25-----
Flag Belgium
VAN DEN DRIESSCHE Din
--------28-----
Flag Belgium
DELAERE Robin
--------2927----
Flag Belgium
VAN DONINK Gianni
--------30-----
Flag Belgium
VANDERAERDEN Timothy
--------3930----
Flag Belgium
VAN AERT Wout
---------112---
Flag France
JAUREGUI Quentin
---------26---
Flag Belgium
SOETE Daan
---------43---
Flag Belgium
HOEYBERGHS Daan
---------59---
Flag Netherlands
VAN BEEK Pjotr
---------68---
Flag Netherlands
WEIJERS Koen
---------717---
Flag Belgium
VAN TICHELT Yorben
---------815---
Flag Belgium
VAN DE VELDE Matthias
---------919---
Flag Netherlands
ARIESEN Tim
---------1027---
Flag Netherlands
KRAMER Erik
---------1216---
Flag Great Britain
ROBINSON Hugo
---------1422---
Flag Belgium
VANKEIRSBILCK Berne
---------16----
Flag Belgium
MERLIER Braam
---------19----
Flag France
ROZ Damien
---------20----
Flag Belgium
VEROFT Jelto
---------2145---
Flag Belgium
HUYGEN Tijs
---------22----
Flag France
KOWALSKI Dylan
---------24----
Flag Belgium
VANDEKERCKHOVE Thibaut
---------2533---
Flag Belgium
JANSEGERS Jeffrey
---------2640---
Flag Belgium
OPSOMER Jan Bart
---------28----
Flag Belgium
SWEECK Laurens
----------11--
Flag Belgium
VANTHOURENHOUT Michael
----------212--
Flag Netherlands
GODRIE Stan
----------4---
Flag Belgium
SWEECK Diether
----------57--
Flag Belgium
PANIS Maxim
----------716--
Flag Netherlands
VAN POPPEL Danny
----------109--
Flag Netherlands
MEIJERS Jeroen
----------1130--
Flag Netherlands
DE MAN Jaap
----------13---
Flag Netherlands
VERBERNE Douwe
----------1411--
Flag Belgium
PEETERS Daniel
----------18---
Flag Belgium
AERTS Toon
----------20---
Flag Belgium
DHONDT Michael
----------2126--
Flag Netherlands
BRUSSELMAN Twan
----------2333--
Flag Netherlands
KASTELIJN Kenny
----------2425--
Flag Belgium
VANDERSCHUEREN Lorenzo
----------2537--
Flag Belgium
CLAES Jorn
----------26---
Flag Netherlands
WOUTERS Toon
----------28---
Flag Belgium
BALLET Matthias
----------29---
Flag Belgium
DELFOSSE Karel
----------30---
Flag Belgium
VANDAELE Gregory
----------3522--
Flag Netherlands
TEUNISSEN Mike
-----------220-
Flag Netherlands
VAN DER POEL David
-----------314-
Flag Belgium
VANDEKINDEREN Jens
-----------4--
Flag Netherlands
BOSMAN Gert-Jan
-----------518-
Flag Netherlands
VAN DER HEIJDEN Michiel
-----------66-
Flag Belgium
ADAMS Jens
-----------816-
Flag Belgium
VERMEERSCH Gianni
-----------107-
Flag Belgium
DE TIER Floris
-----------1331-
Flag Belgium
BAELEN Jesper
-----------1421-
Flag Spain
IRAOLAGOITIA Oier
-----------15--
Flag Belgium
MEURISSE Xandro
-----------1725-
Flag Belgium
MERLIER Tim
-----------1850-
Flag Belgium
DESRUELLE Dylan
-----------1939-
Flag Belgium
CANT Jelle
-----------2038-
Flag Belgium
VAN STAEYEN Jordy
-----------2144-
Flag Spain
INSAUSTI IRASTORZA Jon Ander
-----------23--
Flag Belgium
LAPEIRE Simon
-----------24--
Flag Belgium
GEERTS Frederik
-----------2726-
Flag Belgium
DECEUNINCK Tim
-----------2841-
Flag Spain
AZURMENDI Ander
-----------29--
Flag Netherlands
EISING Tijmen
------------119
Flag Belgium
BRAET Vinnie
------------28
Flag Netherlands
VAN DER HAAR Lars
------------312
Flag Belgium
BOSMANS Wietse
------------418
Flag Belgium
DENOLF Ritchie
------------529
Flag Netherlands
VAN KESSEL Corné
------------833
Flag Belgium
DE CLERCQ Angelo
------------923
Flag Belgium
SWEECK Hendrik
------------10-
Flag Belgium
VERSTRAETEN Sieën
------------1120
Flag Belgium
VEESTRAETEN Zeb
------------1228
Flag Belgium
BOSSUYT Matthias
------------1324
Flag Belgium
WYTINCK Niels
------------1522
Flag Belgium
BOUTTÉ Kenzie
------------17-
Flag Belgium
VOLDERS Sonny
------------19-
Flag Belgium
POELVOORDE Robin
------------2237
Flag Belgium
DE PROOST Rinze
------------2336
Flag Netherlands
LUGTEN Jelle
------------24-
Flag Switzerland
MÜLLER Lukas
------------27-
Flag Netherlands
MEIJERS Daan
------------2835
Flag Belgium
KOYEN Niels
------------2932
Flag Netherlands
KRAUWEL Bas
------------3011
Flag Netherlands
VAN DEN ENDE Milan
------------4227
Flag Belgium
BODEN Stef
-------------1
Flag Switzerland
SCHERZ Valentin
-------------2
Flag Netherlands
SMIT Kevin
-------------3
Flag Netherlands
VAN LEIJEN Steven
-------------4
Flag Switzerland
GRAND Arnaud
-------------5
Flag Netherlands
VAN DER HORST Geert
-------------6
Flag Belgium
VEESTRAETEN Ruben
-------------7
Flag Belgium
GEETS Simon
-------------9
Flag Netherlands
VAN DER SANDEN Harm
-------------10
Flag Netherlands
OCKELOEN Jasper
-------------13
Flag Belgium
GALENS Steven
-------------14
Flag Belgium
BEELEN Sven
-------------15
Flag Netherlands
BARKHUIS Bart
-------------16
Flag Belgium
DIELEMAN Michiel
-------------17
Flag Belgium
JANSSENS Joachim
-------------21
Flag Belgium
GYSBRECHTS Thomas
-------------25
Flag Belgium
VAN KEIRSBULCK Guillaume
-------------26
Flag Belgium
DRUYTS Gerry
-------------30