Location Rochester, NY, United States
 
22-23
C2
22-23
C1
21-22
C2
21-22
C1
19-20
C2
19-20
C1
18-19
C2
18-19
C1
17-18
C2
17-18
C1
16-17
C2
16-17
C1
15-16
C2
15-16
C1
Flag Belgium
BAESTAENS Vincent
111141------118
Flag United States
WHITE Curtis
224716--910612711
Flag United States
BRUNNER Eric
36913----------
Flag United States
HAIDET Lance
4815681386111216261317
Flag United States
ORTENBLAD Tobin
54--19147356541416
Flag United States
FIX Brannan
620791396111819----
Flag Canada
VAN DEN HAM Michael
75541112--------
Flag United States
SPRANGER Jack
810------------
Flag Canada
CLARK Tyler
913------------
Flag Switzerland
OPPIZZI Matteo
10162736----------
Flag United States
FUNSTON Scott
117------------
Flag United States
SWARTZ Caleb
123108----------
Flag United States
ANDERSON Jonathan
1311141623DNF--------
Flag United States
NOEL Sam
14231315----------
Flag United States
DILLMAN Andrew
159DNS121281313--11838
Flag Canada
SCOTT Cody
1614------------
Flag United States
STIERWALT Lucas
1725------------
Flag Switzerland
RUSSENBERGER Wanja
18-------------
Flag United States
ZAKRAJSEK Dylan
19272226----------
Flag Canada
O'DONNELL Trevor
2029----17171720----
Flag United States
LANDO Nicholas
21194431----------
Flag Canada
WOODFORD Alexander
2237------------
Flag United States
FRANK Patrick
23344945----------
Flag United States
FRANK Andrew
24-------------
Flag United States
MULLALY Kevin
2535------------
Flag United States
CLOUTIER Tyler
26262834----------
Flag United States
VAN KEMPEN Jules
2721DNF23----------
Flag United States
AVERY Ryan
2840------------
Flag United States
RAAB Trevor
2939------------
Flag Canada
VALENTI Luke
3018------------
Flag United States
BROWN Sam
32122435----------
Flag Canada
SANDERSON Brody
33173121--2315------
Flag United States
WULFKUHLE Andrew
3732--3742--2326----
Flag United States
HAYES Noah
4324------------
Flag United States
GRIFFO Gregg
4444575939-252326304040--
Flag United States
SHELTON Marcis
4515------------
Flag United States
HEWITT Mark
48304649----------
Flag United States
KAISER Cody
DNF22171820181010----2033
Flag United States
BOUCHARD-HALL Kevin
DNS28--2830DNF22-21----
Flag United States
SERVETAS Tommy
DNS411917----------
Flag United States
HYDE Stephen
--233311212364
Flag United States
WERNER Kerry
--32643217819410
Flag United States
HECHT Gage
--65345451218----
Flag Netherlands
VAN DER MEER Gosse
--810----------
Flag United States
CUPP Cody
--1114----------
Flag United States
FREDERICK Ben
--1232----------
Flag United States
LEBLANC Jacob
--16293539--------
Flag United States
MCGILL Scott
--1811----------
Flag United States
THOMPSON Eric
--20191416--------
Flag United States
ELLWOOD Ross
--21DNF2526--------
Flag United States
HILDEBRANDT Casey
--2324----------
Flag United States
LIVERMON Travis
--25251615--14131513--
Flag United States
TANNER Jack
--26DNF----------
Flag United States
JOHNSON Kyle
--2927----------
Flag United States
TABARES Nicholas
--3030----------
Flag United States
GALLEGO Ivan
--3222----------
Flag United States
RYAN Alex
--33281822--1615--2338
Flag United States
TIMMERMAN Dan
--3439------43352
Flag United States
MYLES Mark
--DNF20----------
Flag Belgium
SWEECK Diether
----22--------
Flag Switzerland
RÜEGG Timon
----57--------
Flag Belgium
LOOCKX Lander
----711--------
Flag United States
MAHER Lane
----92315-------
Flag Switzerland
KUHN Kevin
----1010--------
Flag United States
DRISCOLL James
----152099889296
Flag Switzerland
WINTERBERG Lukas
----1721--------
Flag United States
BLACKBURN Trent
----2119--------
Flag United States
ELLWOOD Grant
----2217--------
Flag United States
MORTON Alex
----2429--------
Flag United States
KIEFFER Samuel
----2631--------
Flag United States
CHABANOV Daniel
----27282018DNF2324202829
Flag United States
SUNDQUIST Christian
----29322728------
Flag United States
JUDELSON Max
----3024--------
Flag United States
GINIAT Andrew
----3327--------
Flag United States
GOMEZ VILLAFANE Benjamin
----3625--------
Flag United States
OWENS Michael
----383718191924----
Flag Canada
JETTE Cameron
----DNF383124------
Flag United States
GUNSALUS Gregory
----DNF452634------
Flag United States
POWERS Jeremy
------276311-1
Flag United States
PETROV Spencer
------512441410--
Flag United States
SELANDER Bjorn
------1116------
Flag Belgium
VAN TICHELT Yorben
------1214------
Flag France
BOULO Matthieu
------14875----
Flag United States
WELLS Troy
------16DNF1011-21227
Flag Canada
ST. JOHN Derrick
------192015172517--
Flag United States
BORDEN Andrew
------21-2828----
Flag United States
O'KEEFE Sam
------2221--33233035
Flag United States
ALBAUGH Scott
------2426------
Flag United States
THOMAS Joseph
------2827------
Flag United States
GIELAR Ian
------2925------
Flag United States
FITZGIBBONS Daniel
------30303231----
Flag Canada
MANCINI Peter
------33332734----
Flag Canada
TOUGAS Édouard
------34293038--3444
Flag United States
KISSEBERTH Jack
------DNF413926221722
Flag Belgium
PEETERS Rob
--------32----
Flag Canada
DAIGLE Marc-Andre
--------2025---27
Flag United States
SNYDER Jordan
--------21223227--
Flag Canada
DINIZ Nicholas
--------22DNF----
Flag United States
MCCORMACK Brendan
--------2429----
Flag United States
CLEMENTS Matt
--------2532----
Flag United States
WENCZEL Kale
--------2933----
Flag United States
DURRIN Jeremy
--------DNF141015-13
Flag United States
SMITH Scott
--------DNF162225-23
Flag Canada
BAKKER Osmond
---------27-29-26
Flag United States
SUMMERHILL Daniel
----------343--
Flag United States
PAGE Jonathan
----------791919
Flag Canada
MARTIN Jeremy
----------12589
Flag United States
KRUGHOFF Allen
----------137105
Flag United States
LINDINE Justin
----------1714--
Flag United States
CLARK Anthony
----------1811-15
Flag Australia
AITKEN Christopher
----------19282120
Flag United States
ECKMANN Yannick
----------206--
Flag Belgium
VANDEKINDEREN Jens
----------2116--
Flag Canada
SCHOOLER Aaron
----------2318--
Flag Australia
CHAPMAN Tom
----------27242530
Flag France
MARECAILLE Antonin
----------2830--
Flag United States
MARION Robert
----------29341824
Flag Canada
BELANGER BARRETTE Mathieu
----------3032--
Flag United States
DODGE Cameron
------------23
Flag Belgium
BERDEN Ben
------------1112
Flag Canada
MCNEELY Evan
------------1234
Flag United States
OBERMAN Cole
------------15-
Flag United States
WELLS Jake
------------1614
Flag Canada
MCCONNELL Mark
------------2432
Flag United States
VILLELLA Jordan
------------2637
Flag United States
WAITE Nick
------------27-
Flag United States
SHORT Philip
------------2931
Flag United States
WILLSEY Cooper
------------3125
Flag Great Britain
ROBINSON Hugo
-------------21
Flag United States
FAVATA Christian
-------------28