19-20
C2
17-18
C2
16-17
C2
14-15
C2
13-14
C2
12-13
C2
11-12
C2
10-11
C2
08-09
CDM
07-08
CDM
05-06
CDM
04-05
CDM
Flag Italy
BARONI Francesca
138---------
Flag Italy
GARIBOLDI Rebecca
25134--------
Flag Italy
CASASOLA Sara
342---------
Flag Italy
BULLERI Alessia
4DNF53--------
Flag Italy
PERSICO Silvia
58----------
Flag Italy
REALINI Gaia
613----------
Flag Italy
OBERPARLEITER Anna
7714---------
Flag Italy
FEDE Nicole
8610---------
Flag Italy
BORELLO Carlotta
9-----------
Flag Italy
GRILLO Alessandra
1010----------
Flag Netherlands
PLUIMERS Ilse
11-----------
Flag Italy
PESSE Nicole
12-----------
Flag Italy
TEOCCHI Chiara
13-3279------
Flag Italy
ZONTONE Asia
1415----------
Flag Italy
BRUFANI Letizia
15-----------
Flag Italy
BORGHESI Letizia
16-12---------
Flag Italy
BRESCIANI Nicoletta
17915-56-628252334
Flag Italy
FIORIN Sara
18-----------
Flag Italy
ZANGA Marta
19-----------
Flag Italy
MOTALLI Letizia
2011----------
Flag Italy
MORO Katia
211221---------
Flag Italy
BRAMATI Lucia
22-----------
Flag Italy
RUMAC Elisa
23-----------
Flag United States
GROSS Rebecca
24-----------
Flag Italy
BORGHESI Giada
25-----------
Flag Italy
MARZANI Letizia
26-----------
Flag Italy
CHALLANCIN Giulia
27-----------
Flag Italy
PISCIALI Francesca
28-----------
Flag Italy
BASSI Martina
2920----------
Flag Italy
ARICI Sofia
30-----------
Flag Italy
VERRANDO Alessia
3216-13--------
Flag Italy
PIANA Federica
371727---------
Flag Italy
LECHNER Eva
-1---1--18---
Flag Italy
ARZUFFI Alice Maria
-21135410----
Flag Italy
BOLZAN Matilde
-14----------
Flag Italy
ROSSI Sara
-18----------
Flag Italy
FRAIEGARI Giorgia
-19----------
Flag Italy
SPIGA Elisa
-21----------
Flag Italy
ROSSETTI Vera
-22----------
Flag Italy
SACCU Francesca
-2323---------
Flag Italy
DAL MAGRO Alessia
-24-16--------
Flag Italy
DE PIERI Camilla
-25----------
Flag Italy
CAUZ Francesca
-26--136-----
Flag Italy
GNEMMI Jessica
-2735---------
Flag Italy
NESPOLO Alessia
-28----------
Flag Italy
GILIOLI Marianna Angelica
-2934---------
Flag Italy
LEONARDI Elena
-DNF16---------
Flag Italy
CANCELLIERI Virginia
-DNF2515--------
Flag Netherlands
BAKKER Manon
--4---------
Flag Slovakia
MEDVEDOVA Tereza
--6---------
Flag Netherlands
VAN DER HEIJDEN Inge
--7---------
Flag Italy
ARZUFFI Allegra
--98--------
Flag Belgium
VERHOEVEN Suzanne
--11---------
Flag Italy
MICHIELETTO Giovanna
--1771112------
Flag Italy
GRILLO Catiuscia
--1812--------
Flag Italy
POMPEI Valeria
--19---------
Flag Italy
POLA Ilaria
--20---------
Flag Luxembourg
GODART Suzie
--2291210-11DNF242536
Flag Italy
ROCCHI Chiara
--24---------
Flag Italy
PAGOTTO Gaia
--26---------
Flag Italy
FOLLONI Silvia
--28---------
Flag Italy
PICCOLO Chiara Melissa
--29---------
Flag Italy
LAZZARI Giulia
--30---------
Flag Netherlands
SWINKELS Karlijn
---5--------
Flag Italy
VALENTINI Elena
---64884----
Flag Italy
POLLICINI Silvia
---10--------
Flag Italy
FUMAGALLI Mara
---11--------
Flag Italy
FAORO Anna
---1415-------
Flag Luxembourg
GODART Béatrice
---17--------
Flag Netherlands
KASTELIJN Yara
----2-------
Flag Netherlands
OOSTERMAN Esmee
----6-------
Flag Netherlands
KAPTHEIJNS Maud
----8-------
Flag Netherlands
EIKELENBOOM Lotte
----9-------
Flag Italy
GALIMBERTI Chiara
----1013------
Flag Italy
DOTTI Jasmine
----1311-12----
Flag Italy
CUCCINIELLO Francesca
----1443222292037
Flag Italy
LAZZARO Ilenia
----16-98----
Flag Italy
GALLI Federica
----17-------
Flag Italy
GILIOLI VIOLA Dorotea
----18-------
Flag Italy
ROSSI Vania
-----211-28--
Flag Netherlands
KUIJPERS Evy
-----7------
Flag Italy
VECCHIO Stefania
------27----
Flag Lithuania
LELEIVYTE Rasa
------5-----
Flag Italy
ALESSIO Veronica
------7-2718--
Flag Italy
BRESCIANI Daniela
-------329191039
Flag Italy
CONFALONIERI Maria Giulia
-------5----
Flag Italy
POLLINGER Judith
-------9----
Flag Italy
VENTURINI Desirée
-------13----
Flag Netherlands
VAN DEN BRAND Daphny
--------1111
Flag Germany
KUPFERNAGEL Hanka
--------2634
Flag France
SALVETAT Maryline
--------3862
Flag Canada
FERRIER-BRUNEAU Christel
--------4314-
Flag United States
LLOYD Rachel
--------5---
Flag Netherlands
VOS Marianne
--------6-23
Flag Netherlands
MELCHERS-VAN POPPEL Mirjam
--------7--7
Flag Great Britain
WYMAN Helen
--------8276
Flag Belgium
CANT Sanne
--------912--
Flag Netherlands
VAN PAASSEN Sanne
--------1011--
Flag Czech Republic
HAVLIKOVA Pavla
--------114--
Flag France
MANI Caroline
--------12---
Flag France
TRIQUET-CLAUDE Nadia
--------13949
Flag Canada
SIMMS Wendy
--------14---
Flag Belgium
VANDERBEKEN Joyce
--------15--25
Flag Switzerland
LEUMANN Katrin
--------16---
Flag Netherlands
HORMES Reza
--------1759-
Flag Netherlands
ELEMANS Saskia
--------19---
Flag France
CHAINEL-LEFEVRE Lucie
--------20---
Flag United States
BUTLER Susan
--------21---
Flag Great Britain
DURRIN Gabriella
--------2317--
Flag Canada
ELLIOTT Natasha
--------24---
Flag Italy
CAVANI Milena
--------25202431
Flag Italy
STAFFLER Evelyn
--------26---
Flag Italy
BORGIA Elisabetta
--------3022--
Flag Belgium
INGELS Veerle
--------DNF141612
Flag Netherlands
GRIMBERG Arenda
---------7128
Flag France
LEBOUCHER Laurence
---------10533
Flag Germany
POHL Stefanie
---------13--
Flag Netherlands
VAN RIJEN Linda
---------15--
Flag Belgium
PAUWELS Katrien
---------16-38
Flag United States
VARDAROS Christine
---------21--
Flag Switzerland
MÜLLER Lise
---------23--
Flag Germany
SCHWEIZER Sabrina
---------26--
Flag Italy
TAGLIABUE Valeria
---------27--
Flag Slovakia
VOJTASOVA Zuzana
---------30--
Flag Germany
HOLLMANN Birgit
---------DNF811
Flag Canada
BESSETTE Lyne
----------11-
Flag Belgium
NOBUS Anja
----------135
Flag Italy
BORTOLIN Paola
----------1522
Flag Netherlands
JOCHEMS Britt
----------17-
Flag Italy
BRUNATI Monica
----------1830
Flag Germany
JURANEK Susanne
----------19-
Flag Netherlands
HOFS Petra
----------21-
Flag Belgium
DE BIE-LEIJTEN Nicole
----------2221
Flag Italy
MASSAGLI Sara
----------26-
Flag Netherlands
DORLAND Corine
-----------10
Flag Czech Republic
BOHATA Barbora
-----------13
Flag Belgium
SELS Loes
-----------14
Flag Germany
SPITZ Sabine
-----------15
Flag Belgium
VERMEIREN Katleen
-----------16
Flag Belgium
QUINTENS Hilde
-----------17
Flag Italy
MARSILIO Claudia
-----------18
Flag Czech Republic
BOHATA Katerina
-----------19
Flag Great Britain
ROBINSON Louise
-----------20
Flag Germany
KAMPETER Nicole
-----------23
Flag Great Britain
WILKINSON Victoria
-----------24
Flag Austria
WIESER Isabella
-----------26
Flag Switzerland
BÄHLER Alexandra
-----------27
Flag Germany
HELMKE Katrin
-----------28
Flag Denmark
ANDERSEN Mette
-----------29