19-20
C2
17-18
C2
16-17
C2
14-15
C2
13-14
C2
12-13
C2
11-12
C2
10-11
C2
08-09
CDM
06-07
CDM
05-06
CDM
04-05
CDM
Flag Germany
WEBER Sascha
133---------
Flag Italy
DORIGONI Jakob
289---------
Flag Italy
COMINELLI Cristian
310786--235---
Flag Italy
FONTANA Filippo
4-----------
Flag Italy
BERTOLINI Gioele
5229--------
Flag Italy
SAMPARISI Nicolas
65121614171315----
Flag Italy
FOLCARELLI Antonio
71119---------
Flag Italy
LEONE Samuele
8-----------
Flag Italy
FRUET Martino
91311---------
Flag Italy
TONEATTI Davide
10-----------
Flag Italy
SAMPARISI Lorenzo
1191821181217-----
Flag Italy
TABACCHI Mirko
12---19-36----
Flag Italy
PAVAN Marco
13-----------
Flag Italy
CIBRARIO Luca
141828---------
Flag Netherlands
BOVEN Lars
15-----------
Flag Netherlands
VAN HELVOIRT Koen
16-----------
Flag Italy
PESCARMONA Luca
17-----------
Flag Italy
CAPPONI Stefano
18-----------
Flag Italy
HUEZ Emanuele
19-----------
Flag Italy
TRABALZA Alessio
20-----------
Flag Italy
BERGAGNA Tommaso
21-----------
Flag Australia
HAUSSLER Heinrich
22-----------
Flag Italy
SALA Stefano
232035---------
Flag Italy
CEOLIN Federico
24-----------
Flag Italy
BALDESTEIN Raul
25-----------
Flag Italy
COVER Leonardo
26-----------
Flag Italy
CAROZZO Marco
272240---------
Flag Italy
LUPATO Denny
28-----------
Flag Italy
MERLINO Marcello
292542---------
Flag Italy
SPADONI Gabriele
30-----------
Flag Italy
COLOMBO Marco
3523----------
Flag Italy
GARGANTINI Dario
412445---------
Flag Italy
TODARO Manuel
4819-20--------
Flag Germany
MEISEN Marcel
-11---------
Flag Switzerland
FLÜCKIGER Lukas
-4--7-------
Flag Italy
FRANZOI Enrico
-66-232-13-39
Flag Switzerland
ROHRBACH Nicola
-7----------
Flag Italy
SMARZARO Daniel
-1225---------
Flag Italy
MOLINARI Rudy
-1431---------
Flag France
SIMON Quentin
-15----------
Flag Italy
BRANCATI Alberto
-16----------
Flag Italy
ZAMPESE Fabio
-17----------
Flag Italy
VALFRÈ Giulio
-21----------
Flag Italy
LUCHINI Daniele
-26----------
Flag Italy
BONALDA Graziano
-27----------
Flag Italy
VARE Riccardo
-2855---------
Flag Italy
CISOTTO Yari
-29----22-----
Flag Italy
SEGATORI Tomas
-3063---------
Flag Italy
GIULIANI Giovanni
-4150303427------
Flag Italy
CANEVA Tommaso
-4246-20-19-----
Flag Italy
VIDONI Matteo
-DNF23---------
Flag Italy
COLLEDANI Nadir
--413--------
Flag Belgium
MERLIER Braam
--5---------
Flag Switzerland
ZAHNER Simon
--8-5---231816-
Flag Italy
VALDRIGHI Stefano
--10---------
Flag Switzerland
WILDHABER Michael
--13---------
Flag Belgium
VANDEKINDEREN Jens
--14218------
Flag Italy
PONTA Marco
--151210-57----
Flag Slovakia
VOZAR Simon
--16---------
Flag Netherlands
VAN DER HEIJDEN Bjorn
--17---------
Flag Switzerland
LANG Pirmin
--20---------
Flag Italy
LAMASTRA Giuseppe
--21---------
Flag Italy
PINATO Davide
--22---------
Flag Italy
BASSANI Michele
--24---------
Flag Italy
GUGLIELMETTI Diego
--26---------
Flag Italy
RIDOLFI Riccardo
--27---------
Flag Italy
BENNATI Riccardo
--29---------
Flag Netherlands
BOUWMANS Dylan
--30---------
Flag Italy
LONGHI Alex Flavio
--3422-19-12----
Flag Italy
PENNA Mattia
--44-25-------
Flag Italy
CANTÙ Davide
--5626--------
Flag Netherlands
GODRIE Stan
---1-2------
Flag Netherlands
BUDDING Martijn
---3--------
Flag Netherlands
NIEUWENHUIS Joris
---4--------
Flag Italy
BRAIDOT Luca
---515-1614----
Flag Italy
BRAIDOT Daniele
---61776-----
Flag Italy
FALASCHI Bryan
---7416-9----
Flag Switzerland
WINTERBERG Lukas
---10--------
Flag Switzerland
LIENHARD Fabian
---118-------
Flag Czech Republic
HEKELE Emil
---14------43-
Flag Switzerland
SÄGESSER Severin
---15--------
Flag Netherlands
VAN BAKEL Robbie
---17--------
Flag Switzerland
RÜEGG Timon
---18--------
Flag Netherlands
WOUTERS Sieben
---19--------
Flag Italy
ANDREATTA Luca
---23--------
Flag Italy
MARCHI Andrea
---24--------
Flag Italy
ROSA Massimo
---25--------
Flag Italy
RAVANELLI Simone
---27--------
Flag Italy
CANTONI Daniele
---28--------
Flag Italy
HMOUDDAN Zakaria
---29--------
Flag Netherlands
WUBBEN Niels
----3-------
Flag Switzerland
MÜLLER Lukas
----9-------
Flag Italy
BIANCO Marco
----11-8-19213039
Flag Italy
SILVESTRI Elia
----12411----
Flag Estonia
LOO Martin
----1314------
Flag Italy
PACCAGNELLA Thomas
----16-115----
Flag Luxembourg
GLEIS Ralph
----21-------
Flag Italy
SIRICA Pasquale
----22-------
Flag Italy
RASETI Patrick
----23-------
Flag Italy
BARONE Roberto
----24-25-----
Flag Italy
TODARO Fabio Alfonso
----26201016----
Flag Italy
PACCHIARDO Davide
----27-------
Flag Italy
MOZZILLO Francesco
----2826------
Flag Italy
BARATTIN Alessio
----29-------
Flag Italy
RUDI Filippo
----30-------
Flag Italy
FONTANA Marco Aurelio
-----1--819-36
Flag Switzerland
GRAND Arnaud
-----5------
Flag Netherlands
VAN LEEUWEN Patrick
-----6--39---
Flag Netherlands
BOSMAN Gert-Jan
-----9------
Flag Belgium
SOETE Daan
-----10------
Flag Italy
URSI Fabio
-----11-332---
Flag Italy
DAMIANI Luca
-----134-4040-30
Flag Switzerland
MOSER Andreas
-----15---37--
Flag Italy
PAVARIN Marcello
-----18------
Flag Italy
CUCCINIELLO Manuel
-----21------
Flag Italy
MASCIARELLI Andrea
-----22------
Flag Italy
MASCIARELLI Simone
-----23------
Flag Italy
GUZZARDI David
-----242321----
Flag Italy
SANTINI Pietro
-----2514-----
Flag Italy
BRASI Diego
-----28------
Flag Czech Republic
BOROS Michael
------7-----
Flag Italy
SMARZARO Igor
------913----
Flag Switzerland
LANG René
------12-----
Flag Slovakia
METLICKA Vaclav
------15-42-5241
Flag Italy
DI PIERDOMENICO Martino
------1819----
Flag Switzerland
KURIGER Markus
------2024----
Flag Germany
SCHNEIDER Sascha
------21-----
Flag Switzerland
STAUBLE Dario
------2423----
Flag Italy
CONTI Samuele
------26-----
Flag Italy
DONEDDU Antonio
------27-----
Flag Belarus
NOVIKAU Siarhei
------28-----
Flag Italy
GUADAGNINI Marco
------29-----
Flag Italy
REGINATO Valentino
------30-----
Flag Italy
TRENTIN Matteo
-------4----
Flag Belgium
BERDEN Ben
-------8---2
Flag Italy
GAMBINO Alessandro
-------1027---
Flag France
MOUGEL Damien
-------11----
Flag Italy
SIMONCINI Emanuel
-------17----
Flag Romania
GROSU Eduard Michael
-------18----
Flag Italy
ALBERTONE Edmil
-------20----
Flag Italy
ACQVAVIVA Francesco
-------22----
Flag Italy
NICCOLI Francesco
-------25----
Flag Belgium
NYS Sven
--------1211
Flag Netherlands
BOOM Lars
--------2---
Flag Czech Republic
STYBAR Zdenek
--------3-28-
Flag Belgium
ALBERT Niels
--------4---
Flag Belgium
VANTHOURENHOUT Sven
--------5368
Flag Belgium
WELLENS Bart
--------61410
Flag Belgium
PAUWELS Kevin
--------76--
Flag France
CHAINEL Steve
--------92620-
Flag Belgium
VANTORNOUT Klaas
--------10529-
Flag Netherlands
DE KNEGT Gerben
--------1178-
Flag Netherlands
AL Thijs
--------121225-
Flag Belgium
VANTHOURENHOUT Dieter
--------14---
Flag Netherlands
GROENENDAAL Richard
--------15-718
Flag Belgium
AERNOUTS Bart
--------16101415
Flag Belgium
VERVECKEN Erwin
--------171524
Flag Netherlands
VAN IJZENDOORN Eddy
--------18-27-
Flag France
LOPEZ Jonathan
--------20---
Flag Czech Republic
DLASK Petr
--------21-105
Flag France
BAZIN Nicolas
--------22---
Flag France
DEREPAS David
--------24-3525
Flag Italy
VISINELLI Rafael
--------25---
Flag Switzerland
HEULE Christian
--------26111223
Flag Czech Republic
ZLAMALIK Martin
--------28-2424
Flag Netherlands
VAN AMERONGEN Thijs
--------29---
Flag Poland
GIL Mariusz
--------3033--
Flag Netherlands
VAN GILS Wilant
--------3314514
Flag Czech Republic
KYZIVAT Vladimir
--------43-3413
Flag France
MOUREY Francis
---------42320
Flag France
GADRET John
---------897
Flag Czech Republic
AUSBUHER Kamil
---------92626
Flag Netherlands
NIJLAND Maarten
---------13-11
Flag Belgium
COMMEYNE Davy
---------162222
Flag Czech Republic
SIMUNEK Radomir
---------1713-
Flag Italy
FONTANA Alessandro
---------204631
Flag United States
TREBON Ryan
---------22--
Flag Germany
URBAN Malte
---------23-34
Flag France
LABBE Arnaud
---------24-40
Flag Czech Republic
MLYNAR Zdenek
---------25-3
Flag Netherlands
MUTSAARS Ronald
---------27--
Flag Switzerland
MOOS Alexandre
---------2839-
Flag Czech Republic
CHROBAK Jan
---------29--
Flag Switzerland
RAMSAUER Jan
---------30-37
Flag Belgium
VAN NUFFEL Tim
---------3421-
Flag Netherlands
VAN DEN BERGH Camiel
---------361919
Flag Switzerland
FRISCHKNECHT Thomas
----------11-
Flag Czech Republic
BINA Martin
----------15-
Flag Switzerland
BAUMGARTNER Michael
----------1721
Flag Belgium
JACOBS Wim
----------1812
Flag Belgium
VANNOPPEN Tom
-----------6
Flag Belgium
VERSTRAETEN Jan
-----------16
Flag United States
PAGE Jonathan
-----------17
Flag Czech Republic
JEZEK Vaclav
-----------27
Flag Switzerland
MORF Beat
-----------28
Flag Denmark
NIELSEN Tommy
-----------29