21-22
C2
19-20
C2
18-19
C2
17-18
C2
16-17
C2
15-16
C2
14-15
C2
13-14
C2
12-13
C2
11-12
C2
10-11
C2
09-10
C2
08-09
C2
Flag Belgium
SWEECK Laurens
18171752------
Flag Belgium
ISERBYT Eli
216211113-------
Flag Netherlands
VAN DER HAAR Lars
3547---4-----
Flag Belgium
VANDEPUTTE Niels
4------------
Flag Belgium
VANDEBOSCH Toon
524-----------
Flag Spain
ORTS LLORET Felipe
613101016--------
Flag Belgium
MEEUSEN Tom
7694---2127-88
Flag Switzerland
RÜEGG Timon
8------------
Flag Belgium
SOETE Daan
9-129157-------
Flag Belgium
NYS Thibau
10------------
Flag Netherlands
KAMP Ryan
1110-----------
Flag Netherlands
GODRIE Stan
12------------
Flag Belgium
WYSEURE Joran
1319-----------
Flag Belgium
FERDINANDE Anton
141824----------
Flag Belgium
VANTHOURENHOUT Michael
1522DNF2121--12---
Flag Belgium
SWEECK Diether
161611DNF1481610-----
Flag Belgium
LOOCKX Lander
17DNF-----------
Flag Switzerland
KUHN Kevin
18------------
Flag Belgium
SIEMONS Julian
19------------
Flag France
THOMAS Théo
20------------
Flag Belgium
VERSTRYNGE Emiel
21------------
Flag Spain
SUAREZ FERNANDEZ Kevin
22------------
Flag France
MENUT David
23------------
Flag Belgium
WUYTS Mathijs
242218----------
Flag Belgium
UYTDEWILLIGEN Ingmar
25------------
Flag Belgium
AERTS Thijs
26-1316---------
Flag Belgium
BEKAERT Yentl
27-27----------
Flag France
CHAINEL Steve
28------------
Flag France
CASTILLE Noé
29------------
Flag Belgium
KIELICH Timo
30------------
Flag Belgium
ALDERWEIRELD Robin
32202530--32------
Flag Germany
MEISEN Marcel
35---13--------
Flag Belgium
VERVOORT Wout
4125-----------
Flag Belgium
VAN COMPERNOLLE Kenneth
4433--24-191491713914
Flag Belgium
DE SCHUYTER Tim
45-----3124-----
Flag Netherlands
VAN KESSEL Corné
DNF4--9--5-----
Flag Belgium
AERTS Toon
-335---------
Flag Belgium
HERMANS Quinten
-7-8-10-------
Flag Netherlands
VAN DER POEL David
-9521016-------
Flag Belgium
ADAMS Jens
-11DNF1112-10------
Flag Belgium
VANTHOURENHOUT Dieter
-12156-911-83---
Flag Belgium
AERNOUTS Jim
-14------55---
Flag France
BENOIST Antoine
-15-----------
Flag Belgium
CLEPPE Nicolas
-17-----------
Flag Belgium
PEETERS Yannick
-211618---------
Flag United States
WERNER Kerry
-23261736--------
Flag United States
WHITE Curtis
-26-----------
Flag Belgium
DEJONGHE Len
-2729----------
Flag Belgium
PEMEN Dolf
-28-----------
Flag Belgium
CLAUWAERT Maarten
-2933----------
Flag Netherlands
DEKKER Jens
-30-----------
Flag Netherlands
VAN DER POEL Mathieu
--1-1--------
Flag Czech Republic
BOROS Michael
--7----------
Flag Belgium
VAN AERT Wout
--8-4659-----
Flag Belgium
VERMEERSCH Gianni
--1412543-6----
Flag Great Britain
TURNER Ben
--19----------
Flag Belgium
MERLIER Braam
--201419--------
Flag Belgium
DEBEIR Arno
--21----------
Flag Belgium
DEWULF Maxim
--22----------
Flag Canada
VAN DEN HAM Michael
--232630--------
Flag Spain
ESTEBAN AGUANDO Ismael
--2822---------
Flag Belgium
VANDEBOSCH Victor
--30----------
Flag Belgium
DE SMET Thibaut
--3129---------
Flag United States
THOMPSON Eric
--3427---------
Flag Belgium
SWEECK Hendrik
--352037252717-----
Flag Belgium
TIELEN Dario
--37153124-------
Flag Belgium
MERLIER Tim
--DNF33-7-114---
Flag Belgium
DE WIT Edwin
--DNF25-272926-----
Flag Belgium
PEETERS Rob
---1318-156-89--
Flag Belgium
HOEYBERGHS Daan
---19---------
Flag Belgium
BONNE Jenko
---233422-------
Flag United States
ORTENBLAD Tobin
---24---------
Flag Spain
RUIZ DE LARRINAGA IBANEZ Javier
---2825172315-----
Flag Canada
MCCONNELL Mark
---31-29-------
Flag Belgium
DECLERCK Mathias
---324130-------
Flag Belgium
PAUWELS Kevin
----621-42624
Flag Belgium
BOSMANS Wietse
----8-4-13----
Flag United States
HYDE Stephen
----1711-------
Flag Belgium
VAN TICHELT Yorben
----20-13-21----
Flag Belgium
GOOSSENS Kobe
----21-17------
Flag Belgium
VANDEKINDEREN Jens
----222012------
Flag Belgium
DE CLERCQ Angelo
----2318---15---
Flag Belgium
JOSEPH Thomas
----26-20------
Flag Belgium
DEGROOTE Jonas
----2721-------
Flag Belgium
DENUWELAERE Jan
----282318--138-17
Flag Spain
HERNANDEZ GUTIERREZ Aitor
----29-3016-----
Flag Belgium
PAUWELS Dries
----40------16-
Flag France
LEBESQ Nicolas
----42--27-----
Flag Czech Republic
SIMUNEK Radomir
-----3---6--7
Flag Belgium
NYS Sven
-----12812-141
Flag Belgium
CANT Kevin
-----1426--24-11-
Flag Belgium
VANTHOURENHOUT Sven
-----159-71262
Flag Poland
GIL Mariusz
-----19221214-10--
Flag United States
SMITH Scott
-----26-------
Flag Belgium
MUSEEUW Stefano
-----28-------
Flag Belgium
VANTORNOUT Klaas
------6--10356
Flag Belgium
ADAMS Joeri
------148-----
Flag Belgium
BRAET Vinnie
------24------
Flag United States
PAGE Jonathan
------25------
Flag Netherlands
SINKELDAM Ramon
------28------
Flag Belgium
ALBERT Niels
-------3394110
Flag Czech Republic
BINA Martin
-------7-----
Flag Belgium
BAESTAENS Vincent
-------11-----
Flag United States
POWERS Jeremy
-------13-----
Flag Czech Republic
PETRUS Lubomir
-------18-----
Flag Belgium
BEELEN Sven
-------19241117--
Flag France
MARECAILLE Antonin
-------2025----
Flag Belgium
EECKHOUT Kevin
-------2120----
Flag Belgium
PEPERMANS Lorenzo
-------22-----
Flag Belgium
VANKEIRSBILCK Berne
-------23-----
Flag Belgium
CLAEYS Stef
-------25-----
Flag Belgium
DE WISPELAERE Bert
-------28-232115-
Flag Belgium
VANTOMME Maxime
-------29-----
Flag Australia
BOTH Nick
-------30-----
Flag Belgium
NEIRYNCK Kevin
-------31--29--
Flag Belgium
WELLENS Bart
--------1-733
Flag Belgium
HOFMAN Joeri
--------10----
Flag Belgium
HOFMAN Bart
--------151923--
Flag Belgium
BODEN Stef
--------16----
Flag Belgium
AERNOUTS Bart
--------17-12-11
Flag Belgium
COMMEYNE Davy
--------18----
Flag Belgium
DENOLF Gianni
--------1928251319
Flag Belgium
DE DECKER Steven
--------221822--
Flag Belgium
MELLEMANS Jeffrey
--------23----
Flag Belgium
VAN DEN BOSCH Tom
---------14---
Flag Belgium
DENOLF Ritchie
---------1627--
Flag Great Britain
FIELD Ian
---------20---
Flag Belgium
MEURISSE Xandro
---------2120--
Flag Belgium
PENNE Stijn
---------22-12-
Flag Belgium
DE TIER Floris
---------2526--
Flag Germany
WALSLEBEN Philipp
---------2611-12
Flag Belgium
BASSEZ Patrick
---------271917-
Flag Belgium
VAN DE VELDE Valentijn
---------2928--
Flag Czech Republic
STYBAR Zdenek
----------57-
Flag Belgium
HUYS Stijn
----------14--
Flag Belgium
GAUDY Patrick
----------15--
Flag Belgium
VAN GREMBERGEN Kendric
----------16-22
Flag Czech Republic
POLNICKY Jiri
----------18--
Flag Belgium
VAN NUFFEL Tim
----------24-18
Flag France
TALEUX Jean-Baptiste
----------3019-
Flag Italy
BIANCO Marco
-----------1013
Flag Belgium
GELUYKENS Kenny
-----------14-
Flag Belgium
GOVAERT Sam
-----------18-
Flag Netherlands
AL Thijs
------------5
Flag Netherlands
DE KNEGT Gerben
------------9
Flag Switzerland
HEULE Christian
------------15
Flag Netherlands
GROENENDAAL Richard
------------16
Flag Belgium
VERSCHUEREN Bart
------------20
Flag Sweden
DARVELL Magnus
------------21
Flag Sweden
NILSSON Mattias
------------23
Flag Belgium
NAERT Jo
------------24
Flag Belgium
DE MEESTER Freddy
------------25
Flag Belgium
CAUWELIER Dries
------------26