21-22
CN
20-21
CN
19-20
CN
18-19
CN
17-18
CN
16-17
CN
15-16
CN
14-15
CN
13-14
CN
12-13
CN
11-12
CN
09-10
CN
07-08
CN
06-07
CN
Flag Italy
TONEATTI Davide
132-----------
Flag Italy
LEONE Samuele
244-----------
Flag Italy
PAVAN Marco
3237----------
Flag Italy
LOCONSOLO Ettore
4-------------
Flag Italy
MASCIARELLI Lorenzo
5-------------
Flag Italy
HUEZ Emanuele
6-6-----------
Flag Italy
MANCINELLI Philippe
710------------
Flag Italy
BERTINI Gabriele
8-------------
Flag Italy
FEDE Gabriel
9-------------
Flag Italy
BALDESTEIN Raul
10-14-----------
Flag Italy
OLIVIERI Damiano
11-------------
Flag Italy
CARRER Vittorio
12-------------
Flag Italy
CONTI Andrea
13-------------
Flag Italy
CECCHI Filippo
1418------------
Flag Italy
MARZANI Marco
1511-16----------
Flag Italy
PERUZZO Andrea
16-------------
Flag Italy
SPICA Emanuele
17-------------
Flag Italy
CRESCA Alessandro
18-25-----------
Flag Italy
ZECCHINI Simone
19-29-----------
Flag Italy
CAUTELA Piergianni
2025------------
Flag Italy
BUTTIGLIERO Samuel
21-------------
Flag Italy
ALESSANDRINO Luigi
2226------------
Flag Italy
MARINELLI Gabriele
23-------------
Flag Italy
BONTEMPI Alessandro
24-------------
Flag Italy
MESTRONI Francesco
25-------------
Flag Italy
MOSCATELLO Ramesse
26-------------
Flag Italy
CARUBINI Michele
27-------------
Flag Italy
MININNI Flavio
28-------------
Flag Italy
CASASOLA Manuel
DNFDNF21-----------
Flag Italy
SPADONI Gabriele
DNF-116----------
Flag Italy
FONTANA Filippo
-1DNF-----------
Flag Italy
BERGAGNA Tommaso
-58-----------
Flag Italy
PEDERIVA Simone
-69-----------
Flag Italy
PESCARMONA Luca
-710-----------
Flag Italy
CALLIGARO Cristian
-8------------
Flag Italy
CEOLIN Federico
-954----------
Flag Italy
MARTINELLI Andrea
-12162024---------
Flag Italy
COVER Leonardo
-13710----------
Flag Italy
TORCIANTI Gabriele
-14------------
Flag Italy
BRANCATI Alberto
-15--7---------
Flag Italy
COSTANTINI Riccardo
-16------------
Flag Italy
ROTA Luciano
-17DNF-----------
Flag Italy
CARROCCIA Roberto
-1931-----------
Flag Italy
GARDI Mattia
-2023-----------
Flag Italy
VIOLA Donatello
-2119-22---------
Flag Italy
VERTICCHIO Simone
-22------------
Flag Italy
TARANTINI Simone
-23------------
Flag Italy
LO MONACO Salvatore
-24------------
Flag Italy
CHINI BALLA Samuele
-27------------
Flag Italy
VARNI Niccolo'
-28------------
Flag Italy
PRESTA Francesco
-29------------
Flag Italy
TARANTINO Salvatore
-30------------
Flag Italy
FOLCARELLI Antonio
--1347--------
Flag Italy
GAZZOLA Marco
--121213---------
Flag Italy
BERNARDI Cristian
--13-----------
Flag Italy
GARGANTINI Dario
--158-27--------
Flag Italy
SCACCIAFERRO Pietro
--17-----------
Flag Italy
SEGATORI Tomas
--18-1421--------
Flag Italy
GHISO Matteo
--20-----------
Flag Italy
CROCESI Edoardo
--22-----------
Flag Italy
CHIANDUSSI Michele
--24-----------
Flag Italy
FAES Matteo
--2621----------
Flag Italy
SCARANELLO Enrico
--27-----------
Flag Italy
DALLA SERRA Gabriel
--28-----------
Flag Italy
ZANDONA' Fabio
--30-----------
Flag Italy
CIBRARIO Luca
--DNF5816--------
Flag Italy
DI MATTIA Mario Gabriele
--DNF13----------
Flag Italy
PIN Martino
--DNF23----------
Flag Italy
DORIGONI Jakob
---111--------
Flag Italy
SALA Stefano
---2252-------
Flag Italy
TRABALZA Alessio
---926---------
Flag Italy
MERLINO Marcello
---111612--------
Flag Italy
CONCA Loris
---14----------
Flag Italy
CANEVA Mauro
---15101717-------
Flag Italy
CERRI Luca
---1723---------
Flag Italy
CUDICIO Alberto
---18----------
Flag Italy
ROSSETTI Paolo
---19----------
Flag Italy
GAMBUTI Matteo
---2229---------
Flag Italy
SOTTOVIA Manuel
---24----------
Flag Italy
PIGNOCCHI Alessio
---252732--------
Flag Italy
PELLICCIONI Daniele
---26----------
Flag Italy
VIDONI Matteo
---DNF6---------
Flag Italy
SMARZARO Daniel
----323-------
Flag Italy
BASSANI Michele
----54--------
Flag Italy
FAVARO Patrick
----9---------
Flag Italy
GALLI Giulio
----11---------
Flag Italy
DI GIOVANNI Emanuele
----1223--------
Flag Italy
MOLINARI Rudy
----15922-------
Flag Italy
CERISARA Stefano
----17---------
Flag Italy
PARENTI Nicola
----1824-21------
Flag Italy
MAZZUCCHELLI Marco
----19---------
Flag Italy
MARCHETTI Bruno
----20---------
Flag Italy
CAROZZO Marco
----2137-16------
Flag Italy
PANZARINI Daniele
----25221812------
Flag Italy
LAVIERI Raffaele
----28---------
Flag Italy
CILLI Alessio
----30---------
Flag Italy
COLLEDANI Nadir
-----3118-----
Flag Italy
PELLIZZON Moreno
-----6107------
Flag Italy
TODARO Manuel
-----8-3------
Flag Italy
MANDELLI Federico
-----10--------
Flag Italy
CAPATI Michael
-----111515------
Flag Italy
GUGLIELMETTI Diego
-----13--------
Flag Italy
POZZATO Andrea
-----14--------
Flag Italy
COLNAGHI Davide
-----15--------
Flag Italy
OLIVETTI Simone
-----18--------
Flag Italy
SEGAT Simone
-----1916-------
Flag Italy
DI SANTO Alessandro
-----208-------
Flag Italy
COLNAGHI Andrea
-----25--------
Flag Italy
RECALCATI Christian
-----26--------
Flag Italy
ABATE Matteo
-----2820-------
Flag Italy
PATRUNO Mattia
-----29--------
Flag Italy
MASTROTOTARO Giuseppe
-----30--------
Flag Italy
BENNATI Riccardo
-----334-------
Flag Italy
GILIOLI Samuele Silla
-----3521-24-----
Flag Italy
CANTÙ Davide
-----38-22------
Flag Italy
DE NICOLA Luca
------52711----
Flag Italy
MANDATORI Matteo
------6-------
Flag Italy
PERNA Simone
------74------
Flag Italy
MARCHI Andrea
------9-------
Flag Italy
ANDREATTA Luca
------1110------
Flag Italy
BARATTIN Alessio
------1219------
Flag Italy
MOLETTA Simone
------13-15-----
Flag Italy
PEDRALI Elia
------14-------
Flag Italy
DI FEDERICO Andrea
------191821-----
Flag Italy
RUSSO Antonio
------23-------
Flag Italy
CAPATI Eros
------24-------
Flag Italy
FIDANZIO Emanuele
------25-------
Flag Italy
DEL GIOVANE Simone
------26-------
Flag Italy
LUCHINI Daniele
------27-17-----
Flag Italy
MINUCCI Michele
------28-23-----
Flag Italy
FORESTA Manuel
------2920------
Flag Italy
TONIOLO Nicola
------30-------
Flag Italy
CANEVA Tommaso
-------55-13---
Flag Italy
VALDRIGHI Stefano
-------6413----
Flag Italy
BERTOLINI Gioele
-------81-----
Flag Italy
COLONA Giacomo
-------9------
Flag Italy
QUATTRINI Luca
-------1118-----
Flag Italy
LEONI Patrizio
-------13------
Flag Italy
CICUZZA Tiziano
-------14------
Flag Belgium
VERMEIREN Gianni
-------17------
Flag Italy
GIUSERI Samuele
-------23------
Flag Italy
CURINO Biagio
-------2429-----
Flag Italy
PICCOLO Mauro
-------25------
Flag Italy
SAMPARISI Nicolas
--------235---
Flag Italy
SAMPARISI Lorenzo
--------376---
Flag Italy
CISOTTO Yari
--------61214---
Flag Italy
RASETI Patrick
--------9-----
Flag Italy
SIRICA Pasquale
--------10-----
Flag Italy
TODARO Fabio Alfonso
--------1188---
Flag Italy
ACQVAVIVA Francesco
--------12910---
Flag Italy
FUMAROLA Denis
--------1310----
Flag Italy
RIDOLFI Riccardo
--------14-----
Flag Italy
SANTORO Mattia
--------162720---
Flag Italy
MOZZILLO Francesco
--------1919----
Flag Italy
BUTTO Fabrizio
--------20-----
Flag Italy
LUCHINI Nicola
--------22-----
Flag Italy
CHESI Mattia
--------25-----
Flag Italy
POLLA Alberto
--------2622----
Flag Italy
CHIESA Nicolo
--------27-----
Flag Italy
LAMONARCA Nicola
--------28-----
Flag Italy
RUGGIERI Pantaleo
--------30-----
Flag Italy
FALASCHI Bryan
---------142--
Flag Italy
BRAIDOT Daniele
---------226--
Flag Italy
SMARZARO Igor
---------479--
Flag Italy
SANTINI Pietro
---------517---
Flag Italy
PETTINA Nicholas
---------6----
Flag Italy
BERGOMI Fabio
---------1419---
Flag Italy
SALVIANI Domenico Maria
---------15-7--
Flag Italy
LAVIERI Antonio
---------1621---
Flag Italy
GUZZARDI David
---------172224--
Flag Italy
BRASI Diego
---------18----
Flag Italy
CARICATI Nicolo
---------20----
Flag Italy
MENEGON Daniele
---------21----
Flag Italy
CASSANO Fulvio
---------23----
Flag Italy
PESCE Giuseppe
---------24-36--
Flag Italy
GIUSTINO Gennaro
---------25----
Flag Italy
LUCATELLO Pietro
---------26----
Flag Italy
GALLO Alex
---------28----
Flag Italy
SILVESTRI Elia
----------115--
Flag Italy
BRAIDOT Luca
----------35--
Flag Italy
PAPALEO Domenico
----------913--
Flag Italy
DI PIERDOMENICO Martino
----------11---
Flag Italy
TOCCO Andrea
----------12---
Flag Italy
ARU Fabio
----------158--
Flag Italy
BRAIDOT Stefano
----------16---
Flag Italy
SOTTOCORNOLA Andrea
----------18---
Flag Italy
GUADAGNINI Marco
----------23---
Flag Italy
COMINELLI Cristian
-----------112
Flag Italy
TRENTIN Matteo
-----------35-
Flag Italy
MENSI Daniele
-----------4--
Flag Italy
DALL'OSTE Daniele
-----------10--
Flag Italy
TABACCHI Mirko
-----------11--
Flag Italy
MARCELLI Mattia
-----------12--
Flag Italy
LEVEGHI Kevin
-----------14--
Flag Italy
CRISI Roberto
-----------16--
Flag Italy
MICHIELETTO Giuseppe
-----------17--
Flag Italy
CALANCA Lorenzo
-----------18--
Flag Italy
SAMPARISI Simone
-----------19-16
Flag Italy
VALSECCHI Flavio
-----------20--
Flag Italy
NICCOLI Francesco
-----------21--
Flag Italy
SARAI Pietro
-----------22--
Flag Italy
CHIERUZZI Leonardo
-----------23--
Flag Italy
TURSI Loris
-----------25--
Flag Italy
IOTTI Andrea
-----------26--
Flag Italy
PICCOLO Sabino
-----------27--
Flag Italy
TAMBURLINI Michele
-----------28--
Flag Italy
PENNA Mattia
-----------29--
Flag Italy
CATTANEO Riccardo
-----------30--
Flag Italy
PONTA Marco
------------25
Flag Italy
URSI Fabio
------------3-
Flag Italy
CALDERAN Alessandro
------------4-
Flag Italy
BASSANI Andrea
------------64
Flag Italy
MERCANTE Gabriele
------------76
Flag Italy
GILMOZZI Sebastian
------------819
Flag Italy
SOTTOCORNOLA Omar
------------9-
Flag Italy
GATTI Giovanni
------------10-
Flag Italy
VISINELLI Rafael
-------------1
Flag Italy
MALACARNE Davide
-------------3
Flag Italy
DI RELLA Vincenzo
-------------7
Flag Italy
GSCHNELL Manuel
-------------8
Flag Italy
GIUTOLI Gabriele
-------------9
Flag Italy
BOMPIERI Loris
-------------10
Flag Italy
BALBERINI Marco
-------------11
Flag Italy
NANNINI Laerte
-------------12
Flag Italy
LINGUANOTTO Matteo
-------------13
Flag Italy
D'AVOLA Manuele
-------------14
Flag Italy
STRACCIA Michele
-------------15
Flag Italy
PELLANDA Sunil
-------------17
Flag Italy
MALANDRA Valerio
-------------18
Flag Italy
RICCI Marco
-------------20
Flag Italy
GIULIANI Davide
-------------21
Flag Italy
DE BASTIANI Alex
-------------22
Flag Italy
RUSSO Mirko
-------------23
Flag Italy
FRAGASSI Francesco
-------------24
Flag Italy
GUGLIELMETTI Claudio
-------------25
Flag Italy
MARCELLI Andrea
-------------26
Flag Italy
COSTA Alessandro
-------------27
Flag Italy
DI NISO Giordano
-------------28
Flag Italy
DAL PRA Andrea
-------------29