20-21
CN
19-20
CN
18-19
CN
17-18
CN
16-17
CN
15-16
CN
14-15
CN
13-14
CN
12-13
CN
11-12
CN
10-11
CN
09-10
CN
08-09
CN
07-08
CN
Flag Italy
OLIVO Bryan
15------------
Flag Italy
PALETTI Luca
2-------------
Flag Italy
FEDE Gabriel
36------------
Flag Italy
MASCIARELLI Lorenzo
42------------
Flag Italy
AGOSTINACCHIO Filippo
5DNF------------
Flag Italy
SIFFREDI Matteo
616------------
Flag Italy
CANCEDDA Eros
7-------------
Flag Italy
LOCONSOLO Ettore
83------------
Flag Italy
CARRER Vittorio
99------------
Flag Italy
BERTINI Gabriele
1017------------
Flag Italy
TAGLIAPIETRA Edoardo
11-------------
Flag Italy
BOLZAN Edoardo
12-------------
Flag Italy
DALLAGO Andrea
13-------------
Flag Italy
PERIN Fabrizio
1412------------
Flag Italy
SOLENNE Gioele
15-------------
Flag Italy
CARRER Ivan
16-------------
Flag Italy
BETTEO Marco
17-------------
Flag Italy
DEMICHELIS Matteo
1826------------
Flag Italy
BARAZZUOL Enrico
1910------------
Flag Italy
BORELLO Filippo
20-------------
Flag Italy
BASSIGNANA Fabio
21-------------
Flag Italy
GALLIO Filippo
22-------------
Flag Italy
FERRI Tommaso
23-------------
Flag Italy
CONTI Andrea
2420------------
Flag Italy
DE PAOLIS Federico
25-------------
Flag Italy
DI GASPERO Cristiano
26-------------
Flag Italy
PISANU Valerio
27-------------
Flag Italy
LEONARDI Gabriele
28-------------
Flag Italy
GIUSEPPETTI Gabriele
29-------------
Flag Italy
LALONI Matteo
3029------------
Flag Italy
DRUSIN Fabio
3330------------
Flag Italy
OLIVIERI Damiano
3418------------
Flag Italy
DE PRETTO Davide
-16-----------
Flag Italy
CALLIGARO Cristian
-410-----------
Flag Italy
PEZZO ROSOLA Kevin
-79-----------
Flag Italy
CASSOL Daniel
-815-----------
Flag Italy
RICCHIUTI Alessandro
-11------------
Flag Italy
NADALUTTI Valentino
-13------------
Flag Italy
LAVA Matteo
-14------------
Flag Italy
MALFATTI Luca
-1525-----------
Flag Italy
COSTANTINI Riccardo
-19------------
Flag Italy
MANCINELLI Philippe
-2129-----------
Flag Italy
PARISI Yannick
-22------------
Flag Italy
DE NARDI Juri
-23------------
Flag Italy
MARTINELLI Cristiano
-24------------
Flag Italy
FRANZIN Alvise
-25------------
Flag Italy
TORCIANTI Gabriele
-2716-----------
Flag Italy
FERRONI Lorenzo
-28------------
Flag Italy
CAPRA Manuel
-DNF13-----------
Flag Italy
CECCHI Filippo
-DNF24-----------
Flag Italy
LEONE Samuele
--1-----------
Flag Italy
BERGAGNA Tommaso
--224----------
Flag Italy
HUEZ Emanuele
--314----------
Flag Italy
BETTUZZI Tommaso
--411----------
Flag Italy
TONEATTI Davide
--53----------
Flag Italy
PESCARMONA Luca
--77----------
Flag Italy
VERRE Alessandro
--8-----------
Flag Italy
CHIANDUSSI Michele
--1122----------
Flag Italy
FLATI Daniele
--1223----------
Flag Italy
SCACCIAFERRO Pietro
--14-----------
Flag Italy
PUGLIESE Daniele
--17-----------
Flag Italy
BALDESTEIN Raul
--1833----------
Flag Italy
DALLAGO Luca
--1913----------
Flag Italy
DAMIANO Andrea
--2036----------
Flag Italy
CHIUMENTI Giacomo
--2126----------
Flag Italy
CASASOLA Manuel
--2229----------
Flag Italy
PIGANZOLI Davide
--23-----------
Flag Italy
BERNARDI Cristian
--26-----------
Flag Italy
TEDOLDI Daniele
--2748----------
Flag Italy
MASARIN Filippo
--28-----------
Flag Italy
DE RINALDIS Lorenzo
--30-----------
Flag Italy
CHERCHI Dario
--3130----------
Flag Italy
TAGLIENTE Angelo
--4028----------
Flag Italy
PEDERIVA Simone
--DNF17----------
Flag Italy
FONTANA Filippo
---11---------
Flag Italy
DALLA VALLE Tommaso
---27---------
Flag Italy
CONCA Loris
---425---------
Flag Italy
PAVAN Marco
---511---------
Flag Italy
COVER Leonardo
---627---------
Flag Italy
CEOLIN Federico
---85---------
Flag Italy
SPADONI Gabriele
---919---------
Flag Italy
CAROLLO Francesco
---1014---------
Flag Italy
OLIVETTI Mattia
---12----------
Flag Italy
TONI Mattia
---1533---------
Flag Italy
MERLINO Gabriele
---1622---------
Flag Italy
MORZILLO Danilo
---1815---------
Flag Italy
DE PIAZ Marco
---1918---------
Flag Italy
CORTESE Jacopo
---20----------
Flag Italy
REPETI Filippo
---2121---------
Flag Italy
MENICACCI Michael
---2523---------
Flag Italy
MARZANI Marco
---27----------
Flag Italy
SOTTOVIA Manuel
---3730---------
Flag Italy
ZACCARIA Mario
---DNF16---------
Flag Italy
MARCHETTI Bruno
----2---------
Flag Italy
TAFFAREL Nicola
----314--------
Flag Italy
XILLO Edoardo
----44--------
Flag Italy
BRANCATI Alberto
----68--------
Flag Italy
DI MATTIA Mario Gabriele
----8---------
Flag Italy
CALLONI Lorenzo
----95--------
Flag Italy
GALLI Giulio
----1016--------
Flag Italy
MARTINELLI Andrea
----1213--------
Flag Italy
FAVARO Patrick
----1311--------
Flag Italy
VIOLA Donatello
----17---------
Flag Italy
ROSSETTI Paolo
----2029--------
Flag Italy
FELICE Manuel
----24---------
Flag Italy
PEGNA Arturo
----26---------
Flag Italy
MICHIELETTO Matteo
----28---------
Flag Italy
FAES Matteo
----29---------
Flag Italy
DORIGONI Jakob
-----11-------
Flag Italy
BASSANI Michele
-----27-------
Flag Italy
FOLCARELLI Antonio
-----34-------
Flag Italy
POZZATO Andrea
-----622-------
Flag Italy
BIDINI Samuele
-----7--------
Flag Italy
VIDONI Matteo
-----9--------
Flag Italy
PICCO Alessandro
-----10--------
Flag Italy
CIBRARIO Luca
-----1221-------
Flag Italy
LAVIERI Raffaele
-----15--------
Flag Italy
DI GIOVANNI Emanuele
-----1713-------
Flag Italy
ZURLO Matteo
-----18--------
Flag Italy
LOCONSOLO Roberto
-----19--------
Flag Italy
DREOSSI Michele
-----20--------
Flag Italy
SEGATORI Tomas
-----2128-------
Flag Italy
SERENI Alessandro
-----2225-------
Flag Italy
GUGLIELMETTI Diego
-----2323-------
Flag Italy
ZECCHIN Matteo
-----2431-------
Flag Italy
FRAGASSI Paolo
-----25--------
Flag Italy
CESCA Costantino
-----26--------
Flag Italy
SPINETTI Federico
-----27--------
Flag Italy
MARZANO Fabio
-----2824-------
Flag Italy
ASSETTATI Leonardo
-----3038-------
Flag Italy
SALA Stefano
------22------
Flag Italy
SMARZARO Daniel
------37------
Flag Italy
MANDELLI Federico
------53------
Flag Italy
ROSSI Giorgio
------6-------
Flag Italy
MOLINARI Rudy
------812------
Flag Italy
INCARDONA Manuel
------9-------
Flag Italy
RECALCATI Christian
------1018------
Flag Italy
DEBELLIS Davide
------11-------
Flag Italy
LABBROZZI Francesco
------12-------
Flag Italy
DI SANTO Alessandro
------1420------
Flag Italy
NICHELE Edoardo
------1526------
Flag Italy
BUTTÒ Cristian
------16-------
Flag Italy
MECCARIELLO Antonio
------17-------
Flag Italy
OLIVETTI Simone
------18-------
Flag Italy
BROCCHI Christian
------19-------
Flag Italy
NORO Matteo
------20-------
Flag Italy
MERLINO Marcello
------2634------
Flag Italy
FERESIN Kristian
------27-------
Flag Italy
FIDANZIO Emanuele
------29-------
Flag Italy
D'AMICO Luigi
------30-------
Flag Italy
TODARO Manuel
-------12-----
Flag Italy
BONDAVALLI Alex
-------410-----
Flag Italy
FRANZOLIN Giulio
-------54-----
Flag Italy
PELLIZZON Moreno
-------612-----
Flag Italy
ANDREATTA Luca
-------813-----
Flag Italy
ROCCHETTI Filippo
-------9------
Flag Italy
CANEVA Mauro
-------10------
Flag Italy
CORRADINI Michele
-------1121-----
Flag Italy
PERNA Simone
-------1317-----
Flag Italy
PINATO Davide
-------1416-----
Flag Italy
DAL PIVA Lorenzo
-------15------
Flag Italy
ZOPPELLI Alessandro
-------16------
Flag Italy
GOBBO Riccardo
-------17------
Flag Italy
PICCOLO Mauro
-------19------
Flag Italy
PEDRALI Elia
-------21------
Flag Italy
BRINDISINO Mattia
-------22------
Flag Italy
COLONA Giacomo
-------23------
Flag Italy
LEOGRANDE Andrea
-------2438-----
Flag Italy
NEGRINI Andrea
-------25------
Flag Italy
CAROZZO Marco
-------2720-----
Flag Italy
BETTIOL Giulio
-------28------
Flag Italy
PANZARINI Daniele
-------2929-----
Flag Italy
SARTORI Simone
-------30------
Flag Italy
FORESTA Manuel
-------4330-----
Flag Italy
BERTOLINI Gioele
--------11----
Flag Italy
COLLEDANI Nadir
--------33----
Flag Italy
VELASCO Simone
--------58----
Flag Italy
BOLLARDINI Stefano
--------66----
Flag Italy
CAPATI Michael
--------7-----
Flag Italy
BENNATI Riccardo
--------826----
Flag Italy
BELLAN Gabriele
--------920----
Flag Italy
ZANELLA Marco
--------11-----
Flag Italy
CASANOVA Simone
--------1417----
Flag Italy
SEGAT Simone
--------15-----
Flag Italy
SENINI Patrick
--------1825----
Flag Italy
FELICE Thomas
--------19-----
Flag Italy
MARESCUTTI Michele
--------22-----
Flag Italy
BARATTIN Alessio
--------23-----
Flag Italy
CANTÙ Davide
--------2429----
Flag Italy
GILIOLI Samuele Silla
--------2533----
Flag Italy
SALTON BASEI Christian
--------26-----
Flag Italy
PELLIZZATO Marco
--------2711----
Flag Italy
MARCATO Mattia
--------28-----
Flag Italy
PEDANTE Francesco
---------2----
Flag Italy
ZURLO Federico
---------41---
Flag Italy
VALDRIGHI Stefano
---------512---
Flag Italy
MOLETTA Simone
---------7----
Flag Italy
REDAELLI Riccardo
---------94---
Flag Italy
DEBELLIS Stefano
---------1011---
Flag Italy
CUCCINIELLO Manuel
---------1214---
Flag Italy
RASETI Patrick
---------1310---
Flag Italy
RAVASI Edward
---------14----
Flag Italy
MAVARACCHIO Luca
---------1524---
Flag Italy
MAZZA Francesco
---------1616---
Flag Italy
DI NISO Gianvito
---------1813---
Flag Italy
MOZZILLO Francesco
---------1922---
Flag Italy
DE DONNO Roberto
---------21----
Flag Italy
ANZOLIN Carlo
---------22----
Flag Italy
CARICATI Nicolo
---------2325---
Flag Italy
DE NICOLA Luca
---------24----
Flag Italy
PARMEGIANI Maurizio
---------27----
Flag Italy
DE PATRE Niko
---------28----
Flag Italy
CASOLARI Simone
---------30----
Flag Italy
SAMPARISI Lorenzo
----------220--
Flag Italy
SCAPOLAN Enrico
----------325--
Flag Italy
SOTTOCORNOLA Andrea
----------57--
Flag Italy
LENTI Adriano
----------614--
Flag Italy
QUARATO Giuseppe
----------7---
Flag Italy
CANEVA Tommaso
----------819--
Flag Italy
CAPETTI Domenico
----------9---
Flag Italy
BERGOMI Fabio
----------1532--
Flag Italy
DE ROSSI Riccardo
----------1737--
Flag Italy
LAVIERI Antonio
----------1826--
Flag Italy
BRAIDOT Stefano
----------1910--
Flag Italy
MAZZOCCO Mattia
----------20---
Flag Italy
MACOR Simone
----------21---
Flag Italy
SPINETTI Matteo
----------2336--
Flag Italy
TOMASI Gianluca
----------26---
Flag Italy
CARDIN Daniel
----------27---
Flag Italy
TONIETTI Lorenzo
----------28---
Flag Italy
MOLARO Alex
----------29---
Flag Italy
MINERVINI Pasquale
----------30---
Flag Italy
MADOTTO Emanuele
----------3128--
Flag Italy
SANTINI Pietro
-----------116-
Flag Italy
TODARO Fabio Alfonso
-----------26-
Flag Italy
LORENZON Rudy
-----------314-
Flag Italy
SAMPARISI Nicolas
-----------411-
Flag Italy
SIMONCINI Emanuel
-----------5--
Flag Italy
ACQVAVIVA Francesco
-----------69-
Flag Italy
CISOTTO Yari
-----------831-
Flag Italy
TURRI Michele
-----------9--
Flag Italy
MACCULI Antonio
-----------11--
Flag Italy
PETILLI Simone
-----------12--
Flag Italy
TRENTIN Daniele
-----------1317-
Flag Italy
CASAGRANDE Michael
-----------158-
Flag Italy
RIGHETTINI Andrea
-----------1610-
Flag Italy
MANFREDI Nicola
-----------1741-
Flag Italy
SONZOGNI Cristian
-----------1829-
Flag Italy
SEMERARO Roberto
-----------21--
Flag Italy
GIACONELLA Antonio
-----------22--
Flag Italy
LENTI Alessandro
-----------23--
Flag Italy
ZENNARO Stefano
-----------24--
Flag Italy
COSTANTINI Riccardo
-----------27--
Flag Italy
SAVARESE Luigi Giuseppe
-----------29--
Flag Italy
SANTORO Mattia
-----------3051-
Flag Italy
TOCCO Andrea
-----------3130-
Flag Italy
BRAIDOT Daniele
------------17
Flag Italy
FALASCHI Bryan
------------29
Flag Italy
TATTO Michele
------------310
Flag Italy
BRAIDOT Luca
------------44
Flag Italy
PAPALEO Domenico
------------5-
Flag Italy
MARCELLI Mattia
------------7-
Flag Italy
SALVIANI Domenico Maria
------------123
Flag Italy
PASIN Paride
------------13-
Flag Italy
DI FEDERICO Alessandro
------------15-
Flag Italy
SMARZARO Igor
------------18-
Flag Italy
CINTORI Andrea
------------19-
Flag Italy
FAVERO Emanuel
------------20-
Flag Italy
CAZZARO Manuel
------------21-
Flag Italy
GADOTTI Nicola
------------22-
Flag Italy
IOTTI Andrea
------------23-
Flag Italy
EVANGELISTA Marco
------------24-
Flag Italy
URSINO Luca
------------25-
Flag Italy
CASTAGNAVIZ Alex
------------26-
Flag Italy
ESPOSITO Roberto
------------27-
Flag Italy
PALADINI Giovanni
------------28-
Flag Italy
SILVESTRI Elia
-------------1
Flag Italy
COLEDAN Massimo
-------------2
Flag Italy
ARU Fabio
-------------5
Flag Italy
DE ROSSI Alessandro
-------------6
Flag Italy
DALL'OSTE Daniele
-------------8