19-20
CN
18-19
CN
17-18
CN
16-17
CN
15-16
CN
14-15
CN
13-14
CN
12-13
CN
11-12
CN
10-11
CN
09-10
CN
08-09
CN
07-08
CN
06-07
CN
Flag Italy
DORIGONI Jakob
1-------------
Flag Italy
BERTOLINI Gioele
21711---------
Flag Italy
SAMPARISI Nicolas
3-898----16----
Flag Italy
COMINELLI Cristian
4446344-38-52-
Flag Italy
BRAIDOT Luca
5213539--5----
Flag Italy
SALA Stefano
6-------------
Flag Italy
FRUET Martino
781212107--11-----
Flag Italy
CAPPONI Stefano
851051561181417----
Flag Italy
FRANZOI Enrico
99672-224-21-1
Flag Italy
TABACCHI Mirko
10---9-10369-29--
Flag Italy
COLLEDANI Nadir
1175-----------
Flag Italy
ZAMPESE Fabio
1211------------
Flag Italy
TIBERI Andrea
13-------------
Flag Italy
PACCAGNELLA Thomas
14-13811567911723-11
Flag Italy
TRABALZA Alessio
15-------------
Flag Italy
MERLINO Marcello
16-------------
Flag Italy
MARTINELLI Davide
17-------------
Flag Italy
CAROZZO Marco
1813------------
Flag Italy
TODARO Manuel
19-------------
Flag Italy
GAMBARELLI Simone
2012-28----------
Flag Italy
FAVERO Emanuel
212120-----------
Flag Italy
PARENTI Nicola
2216------------
Flag Italy
PETTINA Nicholas
23--2919-14-------
Flag Italy
PAVONI Pietro
2422-1824-201719261916-10
Flag Italy
LIEVORE Daniele
25-------------
Flag Italy
RIDOLFI Riccardo
2619-201817--------
Flag Italy
MOGAVERO Flaviano
27172315222228-------
Flag Italy
PICCIN Federico
2824282626---------
Flag Italy
GILIOLI Samuele Silla
292322-----------
Flag Italy
GAMBUTI Matteo
30-------------
Flag Italy
GIULIANI Giovanni
3126-----22--28--14
Flag Italy
STEFANINI Stefano
3229------------
Flag Italy
MINUCCI Michele
34283131----------
Flag Italy
ANIMALI Alessandro
3618------------
Flag Italy
DALLA PIETA' Kevin
3730------------
Flag Italy
BRAIDOT Daniele
DNF324495--14----
Flag Italy
PONTA Marco
DNF611107101398106-3-
Flag Italy
URSINO Luca
DNF101414-14---44----
Flag Italy
CISOTTO Yari
-1421172511---33----
Flag Italy
ZAMUNER Alessio
-15------------
Flag Italy
PENNA Mattia
-20------------
Flag Italy
SANTERAMO Leonardo
-2525-29---------
Flag Italy
TURSI Loris
-27-------38----
Flag Italy
CHIARELLI Domenico
-323030------32---
Flag Italy
FONTANA Marco Aurelio
--32-111111212
Flag Italy
SAMPARISI Lorenzo
--9116---------
Flag Italy
CAPATI Michael
--15-----------
Flag Italy
VALFRÈ Giulio
--16--121720------
Flag Italy
PELLEGRINI Lorenzo
--17-----------
Flag Italy
COLOMBO Marco
--1821----------
Flag Italy
QUATTRINI Luca
--1924----------
Flag Italy
LUCHINI Nicola
--24-2719--------
Flag Italy
SALZA Michele
--26--202921-4725471416
Flag Italy
DI FEDERICO Andrea
--27-----------
Flag Italy
COLELLA Elia
--29-----------
Flag Italy
VALDRIGHI Stefano
---13----------
Flag Italy
LONGHI Alex Flavio
---1613-1661021119--
Flag Italy
BONALDA Graziano
---19----------
Flag Italy
MARCELLI Mattia
---22----------
Flag Italy
BUTTO Fabrizio
---23----------
Flag Italy
CANEVA Tommaso
---2512---------
Flag Italy
LAVIERI Antonio
---2720---------
Flag Italy
CALVI Mirko
---3228--23------
Flag Italy
SENO Marco
---33---24------
Flag Italy
LAMASTRA Giuseppe
----14-----1214--
Flag Italy
GATTI Giovanni
----16-19-------
Flag Italy
TODARO Fabio Alfonso
----17----13----
Flag Italy
CHIERUZZI Leonardo
----211826-2151-37--
Flag Italy
COSTANTINI Riccardo
----23---------
Flag Italy
FALASCHI Bryan
-----212--12----
Flag Italy
SILVESTRI Elia
-----8314-4----
Flag Italy
SIRICA Pasquale
-----13---27----
Flag Italy
BARONE Roberto
-----15211217-----
Flag Italy
SANTORO Mattia
-----16---58----
Flag Italy
PESCE Giuseppe
-----2130--61----
Flag Italy
BIANCO Marco
------7-2233123
Flag Italy
URSI Fabio
------8473447-
Flag Italy
MIRTELLI Angelo
------151113-----
Flag Italy
FORZINI Marco
------18--241728--
Flag Italy
GAMBINO Alessandro
------22--6988-
Flag Italy
MASCIARELLI Andrea
------231520-----
Flag Italy
PAVONI Paolo
------241622432026--
Flag Italy
MASCIARELLI Simone
------2519------
Flag Italy
GRANDI Alessandro
------27--36---8
Flag Italy
GRECO Emmanuele
------3125------
Flag Italy
VISINELLI Rafael
-------5121513116-
Flag Italy
PAVARIN Marcello
-------10------
Flag Italy
SOTTOCORNOLA Omar
-------13---27--
Flag Italy
LEVEGHI Kevin
-------1818--31--
Flag Italy
DAMIANI Luca
--------5-81056
Flag Italy
ROSA Diego
--------15-----
Flag Italy
TAVELLA Igor
--------16-----
Flag Italy
RETIS Diego
--------23221620--
Flag Italy
TRENTIN Matteo
---------7-710-
Flag Italy
DALL'OSTE Daniele
---------18----
Flag Italy
CORTI Umberto
---------1914---
Flag Italy
SMARZARO Igor
---------20----
Flag Italy
ROSSI Mattia
---------23-18--
Flag Italy
PAPALEO Domenico
---------25----
Flag Italy
TOCCO Andrea
---------28----
Flag Italy
GUZZARDI David
---------29----
Flag Italy
MERCANTE Gabriele
---------30-17--
Flag Italy
SEGAT Marco
---------312232-9
Flag Italy
NICCOLI Francesco
---------46-24--
Flag Italy
CALDERAN Alessandro
---------50--9-
Flag Italy
STRACCIA Michele
---------522315--
Flag Italy
DI NIZIO Sante
---------54---13
Flag Italy
GARZIA Giovanni
---------552941--
Flag Italy
SARACINO Carlo
---------603046--
Flag Italy
FONTANA Alessandro
----------5645
Flag Italy
ZAMPEDRI Derik
----------10---
Flag Italy
QUADRONI Adam
----------15---
Flag Italy
BASSANI Andrea
----------18---
Flag Italy
ALBERTONE Edmil
----------2139--
Flag Italy
NANNINI Laerte
----------2435--
Flag Italy
COSSANO Massimiliano
----------26---
Flag Italy
DE MARIA Giuseppe
----------27---
Flag Italy
ROSSI Alessandro
----------3557-19
Flag Italy
BOGGIA Stefano
-----------1211-
Flag Italy
DE PATRE Roberto
-----------13--
Flag Italy
ROMANO Cristian
-----------19--
Flag Italy
CRISI Roberto
-----------21--
Flag Italy
D'AVOLA Manuele
-----------22--
Flag Italy
BALBERINI Marco
-----------25--
Flag Italy
MICHIELETTO Giuseppe
-----------30--
Flag Italy
BILATO Gabriele
------------13-
Flag Italy
TURSI Mauro
------------15-
Flag Italy
FRATTINI Davide
-------------4
Flag Italy
TOFFOLETTI Stefano
-------------7
Flag Italy
IACHINI Pasquale
-------------12
Flag Italy
ROVIGLIONI Marco
-------------15
Flag Italy
NATUCCI Maurizio
-------------17
Flag Italy
SCAPIN Francesco
-------------18
Flag Italy
GOTTARDI Cipriano
-------------20
Flag Italy
PANARO Mario
-------------21