14 January 2018
Houghton-Le-Spring, Great Britain
 
17-18
CN
16-17
CN
15-16
CN
14-15
CN
13-14
CN
12-13
CN
11-12
CN
10-11
CN
09-10
CN
08-09
CN
07-08
CN
05-06
CN
04-05
CN
03-04
CN
Flag Great Britain
PIDCOCK Tom
1-------------
Flag Great Britain
TURNER Ben
2-------------
Flag Great Britain
TULETT Daniel
3-------------
Flag Great Britain
MEIN Thomas
4-------------
Flag Great Britain
ORR Cameron
5-------------
Flag Great Britain
LEE Stephen
66------------
Flag Great Britain
MCGUIRE Mark
7-8-----------
Flag Great Britain
FERNIE Calum
8-------------
Flag Great Britain
WILLIAMS Joe
912------------
Flag Great Britain
HARDING Billy
10168----------
Flag Great Britain
YATES Harry
11-------------
Flag Great Britain
FOX George
125------------
Flag Great Britain
GRIVELL-MELLOR Ewan
134------------
Flag Great Britain
GIBBONS Max
14-------------
Flag Great Britain
ROBERTSON Finlay
158------------
Flag Great Britain
MARTIN Tom
16-------------
Flag Great Britain
ROTHWELL Christopher
172------------
Flag Great Britain
MADGWICK James
181019-----------
Flag Great Britain
CLACHERTY Frazer
1934-----------
Flag Great Britain
EDMOND James
20-15-----------
Flag Great Britain
BROWN Kieren
2117------------
Flag Great Britain
CHARLTON Daniel
22-------------
Flag Great Britain
JARVIS Kieran
23-------------
Flag Great Britain
WEIR Roddy
24-------------
Flag Great Britain
HAMILTON Nicholas
25-------------
Flag Great Britain
HARNDEN Ross
26-------------
Flag Great Britain
YOUNG Simeon
27-------------
Flag Great Britain
RICCIARDI Joseph
28-------------
Flag Great Britain
HORROBIN Benjamin
29-------------
Flag Great Britain
MIDDLEMISS Ryan
30-------------
Flag Great Britain
JOHNSTON Harry
-7------------
Flag Great Britain
PRITCHARD Stan
-9------------
Flag Great Britain
GRIFFITHS Joe
-1110-----------
Flag Great Britain
FRATESI Matthew
-13------------
Flag Great Britain
ROBINSON Fergus
-14------------
Flag Great Britain
OLIVER-EVANS Edwyn
-15-1424---------
Flag Great Britain
BARNES Christopher
-1614-----------
Flag Great Britain
WATERS Joshua
-18------------
Flag Great Britain
WARRE William
-19------------
Flag Great Britain
ARMSTRONG Robert
-20------------
Flag Great Britain
MCGOVERN Chris
-2120-19---------
Flag Great Britain
DRANSFIELD Ben
-22------------
Flag Great Britain
PATON Iain
--1911---------
Flag Great Britain
WADEY Benjamin
--2-----------
Flag Great Britain
BARNES Nicholas
--3477--------
Flag Great Britain
THOMPSON George
--5-15---------
Flag Great Britain
GREEN Arthur
--7-----------
Flag Great Britain
POOLE Jake
--9-----------
Flag Great Britain
ROBINSON Hugo
--11-85--------
Flag Great Britain
PHELPS Jacob
--12-----------
Flag Great Britain
HUMPHREYS Jack
--1361410--------
Flag Great Britain
PEACOCK Jordan
--16-----------
Flag Great Britain
ANDREWS Joseph
--1715----------
Flag Great Britain
NEAVE Anthony
--18-----------
Flag Great Britain
BROOKS Joshua
--21-----------
Flag Great Britain
HUBBARD Jake
--22-----------
Flag Great Britain
FERGUSON Grant
---1113-------
Flag Great Britain
CLARKSON Jack
---24115-------
Flag Great Britain
SUMNER Ben
---3336-------
Flag Great Britain
THOMPSON Michael
---56---------
Flag Great Britain
KERFOOT-ROBSON Dylan
---7----------
Flag Great Britain
RAVENSCROFT Jack
---10----------
Flag Great Britain
ATKINS Joe
---112118--------
Flag Great Britain
MOORE George
---12----------
Flag Great Britain
GARRETT James
---132221--------
Flag Great Britain
COLEMAN Daniel
---16----------
Flag Great Britain
GALLAGHER Kenta
----26216------
Flag Great Britain
JAMES Steven
----5215------
Flag Great Britain
WOMERSLEY Jake
----9---------
Flag Great Britain
MARTIN Adam
----104--------
Flag Great Britain
HARGROVES Matthew
----12---------
Flag Great Britain
KING Adam
----13---------
Flag Great Britain
GRAY Luke
----16841------
Flag Great Britain
MARKHAM Luke
----17---------
Flag Great Britain
ARMSTRONG Tom
----18---------
Flag Great Britain
WOOFINDIN Martin
----20161218------
Flag Great Britain
DALTON Bruce
----23191419------
Flag Great Britain
JOHNSTONE Taylor
-----99-------
Flag Great Britain
MCPARLAND Edward
-----12--------
Flag Great Britain
WATSON Robert
-----131579-----
Flag Great Britain
BOWATER Perry
-----14-8------
Flag Great Britain
COLEMAN Charles
-----15--------
Flag Great Britain
FOX Joseph
-----17--------
Flag Great Britain
DOWNES Matthew
-----20--------
Flag Great Britain
WESTWOOD Lee
------79------
Flag Great Britain
HARGROVES Andrew
------811------
Flag Great Britain
GEE Matthew
------10-------
Flag Great Britain
ARBLASTER Daniel
------11-------
Flag Great Britain
NICHOLS David
------13103-----
Flag Great Britain
TAMAI-WILSON Lewis
------16-------
Flag Great Britain
HICKS Jeremy
------17-14-----
Flag Great Britain
FLETCHER David
-------2-13---
Flag Great Britain
WHENMAN Billy Joe
-------35-----
Flag Great Britain
PAYTON Tom
-------4-8----
Flag Great Britain
ALLEN Steven
-------6------
Flag Great Britain
ALLEN Sam
-------128-----
Flag Great Britain
LOWE Thomas
-------136-----
Flag Great Britain
YOUNG Paul
-------14------
Flag Great Britain
NICHOLS Andrew
-------15714----
Flag Great Britain
FROST Lawrence
-------17------
Flag Great Britain
ALLEN Tim
-------20------
Flag Great Britain
BESWICK Luke
-------211515----
Flag Great Britain
HARRIS Jamie
--------1-----
Flag Great Britain
ADAMS Stephen
--------2314---
Flag Great Britain
BURNS Robert
--------4-----
Flag Great Britain
ZIETZ Matthew
--------10-----
Flag Great Britain
BILL Daniel
--------1111----
Flag Great Britain
WHITTINGTON John
--------12-----
Flag Great Britain
ALLEN Luke
--------13-----
Flag Great Britain
MCEVOY Jonathan
---------2----
Flag Great Britain
THWAITES Mark
---------452--
Flag Great Britain
THWAITES Scott
---------5----
Flag Great Britain
O'BOYLE Anthony
---------676--
Flag Great Britain
ROWSON Tim
---------7----
Flag Great Britain
ROACH Ben
---------9----
Flag Great Britain
BALDWIN Tim
---------1012---
Flag Great Britain
KIRK Jack
---------12----
Flag Great Britain
DAVISON Joel
---------13----
Flag Great Britain
BIBBY Ian
----------1---
Flag Great Britain
FIELD Ian
----------2-2-
Flag Great Britain
ATKINS Alex
----------4---
Flag Great Britain
CREBER Ross
----------6---
Flag Great Britain
SIMMONS Ben
----------8---
Flag Great Britain
BATCHELOR Hamish
----------9---
Flag Great Britain
CHALMERS Scott
----------109--
Flag Great Britain
JONES Nicholas
----------11---
Flag Great Britain
COTTON Mark
----------13108-
Flag Great Britain
MACDONALD Matt
----------15---
Flag Great Britain
HARRISON Nathan
----------16---
Flag Great Britain
HIBBERD Thomas
----------17---
Flag Great Britain
ROACH Steven
-----------16-
Flag Great Britain
LEGG Ian
-----------35-
Flag Great Britain
THOMPSON William
-----------4--
Flag Great Britain
WILLIAMS Lee
-----------548
Flag Great Britain
ADAMS Euan
-----------79-
Flag Great Britain
ROACH Matthew
-----------8--
Flag Great Britain
WHENMAN Robert
-----------11--
Flag Great Britain
OLIVER Ben
-----------127-
Flag Great Britain
SEVIOUR Laurence
-----------13-10
Flag Great Britain
SPENCER Philip
------------14
Flag Great Britain
ADAMS Ross
------------35
Flag Great Britain
KILLEEN Liam
-------------1
Flag Great Britain
RICHARDSON Simon
-------------2
Flag Great Britain
SKINNER Chris
-------------3
Flag Great Britain
COOKE Craig
-------------6
Flag Great Britain
BEDFORD Daniel
-------------7
Flag Great Britain
HUNT Robert
-------------9