8 December 2020
Fae' Di Oderzo, Italy
 
19-20
CJ
18-19
CJ
17-18
CJ
16-17
CJ
15-16
CJ
14-15
CJ
13-14
CJ
12-13
CJ
11-12
CJ
10-11
CJ
09-10
CJ
08-09
CJ
Flag Italy
DE PRETTO Davide
113----------
Flag Italy
AGOSTINACCHIO Filippo
2-----------
Flag Italy
CALLIGARO Cristian
312----------
Flag Italy
OLIVO Bryan
4-----------
Flag Italy
LOCONSOLO Ettore
5-----------
Flag Italy
SOLENNE Gioele
6-----------
Flag Italy
FEDE Gabriel
7-----------
Flag Italy
PERIN Fabrizio
8-----------
Flag Italy
CARRER Vittorio
9-----------
Flag Italy
BARAZZUOL Enrico
10-----------
Flag Italy
SIFFREDI Matteo
11-----------
Flag Italy
CAPRA Manuel
126----------
Flag Italy
NADALUTTI Valentino
13-----------
Flag Italy
MANCINELLI Philippe
1435----------
Flag Italy
PARISI Yannick
15-----------
Flag Italy
MALFATTI Luca
1627----------
Flag Italy
FRANZIN Alvise
17-----------
Flag Italy
DEMICHELIS Matteo
18-----------
Flag Italy
DE NARDI Juri
1929----------
Flag Italy
LAVA Matteo
20-----------
Flag Italy
MARTINELLI Cristiano
21-----------
Flag Italy
CONTI Andrea
22-----------
Flag Italy
FERRONI Lorenzo
23-----------
Flag Italy
COSTANTINI Riccardo
24-----------
Flag Italy
SPEZZANI Simone
2539----------
Flag Italy
DRUSIN Fabio
26-----------
Flag Italy
ARTUSATO Gerardo
27-----------
Flag Italy
CAMPLONE Luciano
28-----------
Flag Italy
BETTEGA Lorenzo
29-----------
Flag Italy
BERTAGNIN Riccardo
30-----------
Flag Italy
TONEATTI Davide
-13---------
Flag Italy
HUEZ Emanuele
-22---------
Flag Italy
BERGAGNA Tommaso
-355---------
Flag Italy
BETTUZZI Tommaso
-45---------
Flag Italy
LEONE Samuele
-521---------
Flag Italy
PESCARMONA Luca
-76---------
Flag Italy
VERRE Alessandro
-8----------
Flag Italy
CASSOL Daniel
-9----------
Flag Italy
PEZZO ROSOLA Kevin
-10----------
Flag Belgium
DE MAERE Alessio
-11----------
Flag Italy
CHIANDUSSI Michele
-1426---------
Flag Italy
BERNARDI Cristian
-15----------
Flag Italy
PEDERIVA Simone
-1624---------
Flag Italy
PUGLIESE Daniele
-17----------
Flag Italy
FLATI Daniele
-1825---------
Flag Italy
DALLAGO Luca
-198---------
Flag Italy
CASASOLA Manuel
-2037---------
Flag Italy
CHIUMENTI Giacomo
-2127---------
Flag Italy
PIGANZOLI Davide
-22----------
Flag Italy
MASARIN Filippo
-23----------
Flag Italy
BALDESTEIN Raul
-2422---------
Flag Italy
DAMIANO Andrea
-25----------
Flag Italy
CANCELLIER Davide
-26----------
Flag Italy
SEMENZATO Paolo
-28----------
Flag Italy
MENEGHIN Giovanni
-30----------
Flag Italy
COVER Leonardo
--12--------
Flag Italy
DALLA VALLE Tommaso
--49--------
Flag Italy
CEOLIN Federico
--7---------
Flag Italy
PAVAN Marco
--912--------
Flag Germany
WOLLENBERG Tim
--1023--------
Flag Italy
TONI Mattia
--11---------
Flag Italy
MENICACCI Michael
--12---------
Flag Italy
DE PIAZ Marco
--1315--------
Flag Italy
SPADONI Gabriele
--1426--------
Flag Italy
CELI Filippo
--15---------
Flag Italy
OLIVETTI Mattia
--1613--------
Flag Belgium
VERDONCK Andres
--17---------
Flag Italy
CONCA Loris
--1816--------
Flag Italy
MERLINO Gabriele
--1921--------
Flag Italy
MORZILLO Danilo
--2014--------
Flag Italy
VIDOTTO Fabio
--23---------
Flag Italy
COL Simone
--28---------
Flag Italy
PELLICCIONI Daniele
--2935--------
Flag Italy
RAVANELLI David
--30---------
Flag Italy
FELICE Manuel
--3325--------
Flag Italy
SOTTOVIA Manuel
--4030--------
Flag Italy
PIN Martino
--4228--------
Flag Italy
GIUSTI Cristian
--4427--------
Flag Italy
CALLONI Lorenzo
---18-------
Flag Switzerland
SCHMID Mauro
---3--------
Flag Italy
FAVARO Patrick
---4--------
Flag Italy
TAFFAREL Nicola
---57-------
Flag Italy
MARCHETTI Bruno
---611-------
Flag Italy
GALLI Giulio
---714-------
Flag Italy
VIOLA Donatello
---8--------
Flag Italy
XILLO Edoardo
---101-------
Flag Italy
BRANCATI Alberto
---11--------
Flag Italy
DI MATTIA Mario Gabriele
---17--------
Flag Italy
GAZZOLA Marco
---18--------
Flag Italy
MARTINELLI Andrea
---1919-------
Flag Italy
REPETI Filippo
---20--------
Flag Italy
BIDINI Samuele
---22--------
Flag Italy
MICHIELETTO Matteo
---24--------
Flag Italy
MADDINELLI Matteo
---29--------
Flag Italy
LAVIERI Raffaele
---DNF16-------
Flag Italy
PICCO Alessandro
----2-------
Flag Italy
BASSANI Michele
----36------
Flag Italy
POZZATO Andrea
----418------
Flag Italy
FOLCARELLI Antonio
----55------
Flag Italy
VIDONI Matteo
----628------
Flag Italy
LOCONSOLO Roberto
----9-------
Flag Italy
CIBRARIO Luca
----10-------
Flag Italy
OLIVETTI Simone
----12-------
Flag Italy
ZURLO Matteo
----13-------
Flag Italy
DI GIOVANNI Emanuele
----1521------
Flag Italy
GUGLIELMETTI Diego
----1712------
Flag Italy
CONSOLARO Mattia
----18-------
Flag Italy
ZECCHIN Matteo
----2016------
Flag Italy
COLNAGHI Luca
----21-------
Flag Italy
DEL SANT Lorenzo
----22-------
Flag Italy
MARZANO Fabio
----23-------
Flag Italy
FAES Matteo
----24-------
Flag Italy
ANDOLFI Lorenzo
----25-------
Flag Italy
FRAGASSI Paolo
----26-------
Flag Italy
MENEGHIN Emanuele
----27-------
Flag Italy
CESCA Costantino
----28-------
Flag Italy
DAL VECCHIO Yuri
----29-------
Flag Italy
SALA Stefano
-----11-----
Flag Italy
ROSSI Giorgio
-----24-----
Flag Italy
SMARZARO Daniel
-----32-----
Flag Italy
DORIGONI Jakob
-----4------
Flag Italy
MECCARIELLO Antonio
-----7------
Flag Italy
DEBELLIS Davide
-----8------
Flag Italy
MOLINARI Rudy
-----918-----
Flag Italy
RECALCATI Christian
-----1011-----
Flag Italy
COVI Alessandro
-----11------
Flag Italy
NICHELE Edoardo
-----13------
Flag Italy
DI SANTO Alessandro
-----1413-----
Flag Italy
MANDELLI Federico
-----155-----
Flag Italy
INCARDONA Manuel
-----17------
Flag Italy
LABBROZZI Francesco
-----19------
Flag Italy
DALLA PRIA Andrea
-----2029-----
Flag Italy
PROIETTI Federico
-----2223-----
Flag Italy
VISCARDI Roberto
-----23------
Flag Czech Republic
BARTIPAN Josef
-----24------
Flag Italy
FANFULLA Leonardo
-----25------
Flag Italy
FERESIN Kristian
-----26------
Flag Italy
COLNAGHI Andrea
-----27------
Flag Italy
ASSETTATI Leonardo
-----29------
Flag Italy
MENICHETTI Andrea
-----30------
Flag Italy
PELLIZZON Moreno
------3-----
Flag Italy
BONDAVALLI Alex
------620----
Flag Italy
TODARO Manuel
------7-----
Flag Italy
PERNA Simone
------812----
Flag Italy
ROCCHETTI Filippo
------9-----
Flag Italy
FRANZOLIN Giulio
------105----
Flag Italy
PEDRALI Elia
------12-----
Flag Italy
DAL PIVA Lorenzo
------14-----
Flag Italy
PANZARINI Daniele
------1523----
Flag Italy
COLONA Giacomo
------16-----
Flag Italy
PICCOLO Mauro
------1722----
Flag Italy
MONTAGNER Luca
------19-----
Flag Italy
ANDREATTA Luca
------2019----
Flag Italy
MARESCUTTI Michele
------21-----
Flag Italy
CAROZZO Marco
------22-----
Flag Italy
BRINDISINO Mattia
------24-----
Flag Italy
CANEVA Mauro
------25-----
Flag Italy
ZOPPELLI Alessandro
------26-----
Flag Italy
GOBBO Riccardo
------27-----
Flag Italy
SARTORI Simone
------28-----
Flag Italy
GRAF Christian
------30-----
Flag Italy
LEOGRANDE Andrea
------3127----
Flag Italy
BERTOLINI Gioele
-------12---
Flag Italy
COLLEDANI Nadir
-------26---
Flag Italy
CAPATI Michael
-------3----
Flag Italy
BENNATI Riccardo
-------413---
Flag Italy
BOLLARDINI Stefano
-------612---
Flag Italy
SANNINO Giuseppe
-------7----
Flag Italy
BARATTIN Alessio
-------8----
Flag Italy
ZANELLA Marco
-------9----
Flag Italy
PINATO Davide
-------10----
Flag Italy
BELLAN Gabriele
-------1111---
Flag Italy
PELLIZZATO Marco
-------13----
Flag Italy
SENINI Patrick
-------14----
Flag Italy
TETI Antonio
-------15----
Flag Italy
CASANOVA Simone
-------1622---
Flag Italy
FELICE Thomas
-------17----
Flag Italy
CANTÙ Davide
-------18----
Flag Italy
GILIOLI Samuele Silla
-------2127---
Flag Italy
BRAVIN Andrea
-------24----
Flag Italy
MARCATO Mattia
-------25----
Flag Italy
ARIGLIANO Andrea
-------26----
Flag Italy
BRUNETTI Vito
-------28----
Flag Italy
ZURLO Federico
--------13--
Flag Italy
PEDANTE Francesco
--------312--
Flag Italy
CUCCINIELLO Manuel
--------4---
Flag Italy
DE NICOLA Luca
--------5---
Flag Italy
REDAELLI Riccardo
--------75--
Flag Italy
VALDRIGHI Stefano
--------8---
Flag Italy
DEBELLIS Stefano
--------910--
Flag Italy
VELASCO Simone
--------10---
Flag Italy
MAVARACCHIO Luca
--------1419--
Flag Italy
MOLETTA Simone
--------15---
Flag Italy
CARICATI Nicolo
--------16---
Flag Italy
PARMEGIANI Maurizio
--------17---
Flag Italy
MAZZA Francesco
--------18---
Flag Italy
GALLO Michele
--------19---
Flag Italy
MOZZILLO Francesco
--------20---
Flag Italy
ZOPPAS Nicolo
--------21---
Flag Italy
ANZOLIN Carlo
--------23---
Flag Italy
DI NISO Gianvito
--------24---
Flag Italy
DE PATRE Niko
--------25---
Flag Italy
CASOLARI Simone
--------26---
Flag Italy
PELLEGRINET Andrea
--------28---
Flag Italy
ROSSI Kevin
--------29---
Flag Czech Republic
NIPL Vojtech
---------13-
Flag Italy
SAMPARISI Lorenzo
---------2--
Flag Italy
SCAPOLAN Enrico
---------425-
Flag Italy
CANEVA Tommaso
---------610-
Flag Italy
SOTTOCORNOLA Andrea
---------713-
Flag Italy
LENTI Adriano
---------817-
Flag Italy
BERGOMI Fabio
---------9--
Flag Czech Republic
SVOBODA Tomas
---------11--
Flag Czech Republic
BREZNA Jan
---------13--
Flag Italy
MADOTTO Emanuele
---------1416-
Flag Italy
MACOR Simone
---------15--
Flag Italy
QUARATO Giuseppe
---------16--
Flag Italy
DE ROSSI Riccardo
---------1730-
Flag Italy
CAPETTI Domenico
---------18--
Flag Italy
CARDIN Daniel
---------20--
Flag Italy
TOMASI Gianluca
---------21--
Flag Italy
DE PIERI Nicolo
---------2238-
Flag Italy
DE PIERI Jacopo
---------2336-
Flag Italy
ACQVAVIVA Francesco
----------121
Flag Italy
TODARO Fabio Alfonso
----------27
Flag Italy
LORENZON Rudy
----------43
Flag Italy
SAMPARISI Nicolas
----------523
Flag Italy
SONZOGNI Cristian
----------6-
Flag Italy
CISOTTO Yari
----------733
Flag Italy
SANTINI Pietro
----------812
Flag Czech Republic
LOUVAR Ondrej
----------9-
Flag Italy
TURRI Michele
----------1113
Flag Italy
CASAGRANDE Michael
----------1215
Flag Italy
RIGHETTINI Andrea
----------1419
Flag Italy
MACCULI Antonio
----------15-
Flag Italy
TERZARIOL Alberto
----------18-
Flag Italy
TOCCO Andrea
----------19-
Flag Italy
TRENTIN Daniele
----------2016
Flag Italy
GUERRINI Luca
----------21-
Flag Italy
MANFREDI Nicola
----------22-
Flag Italy
COSTANTINI Riccardo
----------23-
Flag Italy
CANCHERINI Matteo
----------24-
Flag Italy
SAVARESE Luigi Giuseppe
----------26-
Flag Italy
LAVIERI Antonio
----------27-
Flag Italy
RAIMONDI Eddy
----------28-
Flag Italy
ZENNARO Stefano
----------29-
Flag Italy
DALL'OSTE Daniele
-----------1
Flag Italy
BRAIDOT Luca
-----------2
Flag Italy
FALASCHI Bryan
-----------4
Flag Italy
BRAIDOT Daniele
-----------5
Flag Italy
SALVIANI Domenico Maria
-----------6
Flag Italy
DE ROSSI Alessandro
-----------8
Flag Italy
TATTO Michele
-----------9
Flag Italy
PIAZZA Davide
-----------10
Flag Italy
SIMONCINI Emanuel
-----------11
Flag Czech Republic
SVOBODA Milan
-----------14
Flag Italy
PAPALEO Domenico
-----------17
Flag Slovakia
MEDVED Matej
-----------18
Flag Italy
GUZZARDI David
-----------20
Flag Italy
TEDONE Paolo
-----------22
Flag Italy
ROCCHICCIOLI Daniel
-----------24
Flag Italy
MARCELLI Mattia
-----------25
Flag Czech Republic
MOULE Karel
-----------26
Flag Italy
CASTAGNAVIZ Alex
-----------27
Flag Italy
SMARZARO Igor
-----------28
Flag Italy
DI FEDERICO Alessandro
-----------29
Flag Italy
IOTTI Andrea
-----------30