8 December 2020
Fae' Di Oderzo, Italy
 
19-20
C2
18-19
C2
17-18
C2
16-17
C2
15-16
C2
14-15
C2
13-14
C2
12-13
C2
11-12
C2
10-11
C2
09-10
C2
08-09
C2
07-08
C2
06-07
C2
Flag Belgium
BAESTAENS Vincent
112--1-3------
Flag Italy
BERTOLINI Gioele
2212224-------
Flag Czech Republic
BOROS Michael
3--------14----
Flag Switzerland
ZAHNER Simon
4-------7-----
Flag Italy
FONTANA Filippo
5-------------
Flag Italy
SAMPARISI Nicolas
6-7147138162421----
Flag Italy
FOLCARELLI Antonio
7101016----------
Flag Italy
TONEATTI Davide
8-------------
Flag Italy
SAMPARISI Lorenzo
971381315181227-----
Flag Italy
COMINELLI Cristian
10134-14217-4-1472-
Flag Italy
PAVAN Marco
1119------------
Flag Italy
FRUET Martino
1211151591264016-20---
Flag Italy
LEONE Samuele
13-------------
Flag Italy
CIBRARIO Luca
141560-----------
Flag Italy
CEOLIN Federico
1514------------
Flag Italy
ZAMPESE Fabio
16-64-----------
Flag Italy
TABACCHI Mirko
17--11169341310182338-
Flag Italy
HUEZ Emanuele
18-------------
Flag Italy
SALA Stefano
19611722---------
Flag Italy
COVER Leonardo
2017------------
Flag Italy
URSINO Luca
212128261826-31-4348---
Flag Italy
BALDESTEIN Raul
22-------------
Flag Italy
GAZZOLA Marco
232335-----------
Flag Italy
FAVERO Emanuel
243551-----------
Flag Italy
MARTINELLI Andrea
252830-----------
Flag Italy
CASASOLA Manuel
26-------------
Flag Italy
CROCESI Edoardo
27-------------
Flag Italy
PEDERIVA Simone
28-------------
Flag Chile
ADAOS ALVAREZ Franco Nicolas
29-------------
Flag Italy
CUDICIO Alberto
3034------------
Flag Italy
PICCIN Federico
323746453643-------30
Flag Italy
BRAIDOT Luca
-3946898-913---
Flag Italy
COLLEDANI Nadir
-46-121120-------
Flag Italy
DORIGONI Jakob
-586----------
Flag Italy
FRANZOI Enrico
-812541021152--2
Flag Italy
BRAIDOT Daniele
-914101120--17-22---
Flag Italy
VIDONI Matteo
-125947----------
Flag Italy
CONCA Loris
-16------------
Flag Italy
MENICACCI Michael
-18------------
Flag Italy
CANEVA Mauro
-20243423---------
Flag Italy
GAMBARELLI Simone
-2241-----------
Flag Italy
MERLINO Marcello
-2434-----------
Flag Italy
COLOMBO Marco
-2531-----------
Flag Italy
GARGANTINI Dario
-26------------
Flag Italy
MARTINELLI Davide
-2765-----------
Flag Italy
SPADONI Gabriele
-29------------
Flag Italy
MOLINARI Rudy
-3021-35---------
Flag Italy
ABATE Matteo
-31-2937---------
Flag Italy
CANEVA Tommaso
-324035-16-2925-----
Flag Italy
GILIOLI Samuele Silla
-333938304432-------
Flag Luxembourg
PETELIN Jan
-36-28----------
Flag Italy
TURSI Loris
-39-----25-40----
Flag Italy
CAROZZO Marco
-DNF3627----------
Flag Germany
MEISEN Marcel
--311---------
Flag Italy
FONTANA Marco Aurelio
--59-5-527112153
Flag Italy
TODARO Manuel
--1618-23-19------
Flag Italy
BASSANI Michele
--1713----------
Flag Italy
PACCAGNELLA Thomas
--181281859-19231923-
Flag Italy
DI GIOVANNI Emanuele
--1924----------
Flag Italy
SMARZARO Daniel
--2023----------
Flag Italy
GALLI Giulio
--22-----------
Flag Italy
MARCELLI Mattia
--2320----41-38---
Flag Italy
CISOTTO Yari
--2543253324154330----
Flag Italy
CAPATI Michael
--26--22--------
Flag Italy
BONALDA Graziano
--27-----------
Flag Italy
BRANCATI Alberto
--29-----------
Flag Italy
MALACARNE Davide
--33---21-------
Flag Italy
PANZARINI Daniele
--61-2838--------
Flag France
MOUREY Francis
---3331-------
Flag Italy
MANDELLI Federico
---1719---------
Flag France
HUMBERT Valentin
---1917---------
Flag Italy
VALDRIGHI Stefano
---21----------
Flag Italy
POZZATO Andrea
---22----------
Flag Italy
SERENI Alessandro
---25----------
Flag Italy
GUGLIELMETTI Diego
---30----------
Flag Italy
QUATTRINI Luca
---31-3130-------
Flag Italy
DI SANTO Alessandro
---3229---------
Flag Czech Republic
PAPRSTKA Tomas
----5---11-----
Flag Italy
FALASCHI Bryan
----104-7142515---
Flag Italy
PELLIZZON Moreno
----1527--------
Flag Austria
GOLLINGER Karl Heinz
----2017---36----
Flag Czech Republic
SIREK Adrian
----21---------
Flag Italy
RIDOLFI Riccardo
----2432--------
Flag Czech Republic
MALIK Michal
----26---2829----
Flag Italy
MANDATORI Matteo
----2730--------
Flag Italy
BARATTIN Alessio
----323729-------
Flag Italy
ACQVAVIVA Francesco
----33--183534----
Flag Czech Republic
NIPL Vojtech
-----6--20-----
Flag Italy
PONTA Marco
-----7-68119265-
Flag Italy
SILVESTRI Elia
-----14101058810--
Flag Italy
PETTINA Nicholas
-----19--------
Flag Italy
FERRAZZO Nicolo
-----24--------
Flag Italy
PERNA Simone
-----25--------
Flag Italy
BONDAVALLI Alex
-----28--------
Flag Italy
TODARO Fabio Alfonso
-----29-361916----
Flag Italy
CASANOVA Simone
-----3927-------
Flag Italy
SIRICA Pasquale
-----42223438-----
Flag Italy
TRENTIN Matteo
------1113-3193422-
Flag Estonia
LOO Martin
------12-------
Flag Belgium
VERSCHUEREN Bart
------1311------
Flag Italy
URSI Fabio
------1417104-31713
Flag Netherlands
AL Thijs
------15------8
Flag Italy
DE NICOLA Luca
------1620------
Flag Italy
CAPPONI Stefano
------17--28----
Flag France
MARTINEZ Miguel
------19-------
Flag Italy
PEDANTE Francesco
------2337------
Flag Italy
MOZZILLO Francesco
------25-------
Flag Italy
MOLETTA Simone
------26-------
Flag Italy
FUMAROLA Denis
------2826------
Flag Netherlands
VAN DEN BRAND Twan
-------2------
Flag Italy
SMARZARO Igor
-------142326----
Flag Italy
PAVARIN Marcello
-------21------
Flag Italy
MIRTELLI Angelo
-------2234-----
Flag Italy
SOTTOCORNOLA Omar
-------23---3128-
Flag Italy
SANTINI Pietro
-------24-22----
Flag Italy
MASCIARELLI Andrea
-------27------
Flag Italy
MASCIARELLI Simone
-------28------
Flag Italy
GUZZARDI David
-------303644----
Flag Poland
GIL Mariusz
--------3-----
Flag Italy
DAMIANI Luca
--------6-1084-
Flag Italy
BIANCO Marco
--------924135
Flag Italy
VISINELLI Rafael
--------1217-49712
Flag Italy
FONTANA Alessandro
--------1520691218
Flag Czech Republic
EBERL Filip
--------18-----
Flag Italy
PAPALEO Domenico
--------213735---
Flag Italy
GAMBINO Alessandro
--------2213761017
Flag Italy
MENSI Daniele
--------26-253225-
Flag Italy
MERCANTE Gabriele
--------293316--15
Flag Italy
BARONE Roberto
--------30-----
Flag Italy
PAVONI Pietro
--------333830242019
Flag Italy
GRANDI Alessandro
--------39-2950-20
Flag Belgium
AERNOUTS Bart
---------1----
Flag United States
PAGE Jonathan
---------6----
Flag Italy
LONGHI Alex Flavio
---------121743--
Flag Czech Republic
NESVADBA Jan
---------15----
Flag Italy
CALDERAN Alessandro
---------18271616-
Flag Austria
MÖRX Roland
---------23----
Flag Italy
ARU Fabio
---------242627--
Flag Romania
GROSU Eduard Michael
---------27----
Flag Italy
STRACCIA Michele
---------4237292635
Flag Italy
SEGAT Marco
---------4543352423
Flag Italy
LINGUANOTTO Matteo
---------46-37-29
Flag Netherlands
DE KNEGT Gerben
----------1--4
Flag Belgium
BERDEN Ben
----------3---
Flag Belgium
VERSTRAETEN Jan
----------5---
Flag Italy
ZAMPEDRI Derik
----------12---
Flag Italy
LAMASTRA Giuseppe
----------21---
Flag Italy
BASSANI Andrea
----------2455-16
Flag Italy
CORTI Umberto
----------28---
Flag Italy
MICHIELETTO Giuseppe
----------325318-
Flag Italy
ROSSI Mattia
----------3321--
Flag Czech Republic
CHROBAK Jan
----------3912117
Flag Switzerland
HEULE Christian
-----------4--
Flag Netherlands
GROENENDAAL Richard
-----------5--
Flag Switzerland
LANG Pirmin
-----------11--
Flag Belgium
BEELEN Sven
-----------13--
Flag Belgium
LACROIX Dany
-----------14--
Flag Slovakia
BARENYI Milan
-----------15--
Flag Germany
URBAN Malte
-----------17810
Flag Italy
DE PATRE Roberto
-----------1821-
Flag Sweden
LINDGREN Emil
-----------20--
Flag Switzerland
TARAMARCAZ Julien
-----------22-9
Flag Slovakia
HARING Martin
-----------25--
Flag Switzerland
KUGLER Andreas
-----------28--
Flag Italy
CAPPI Fabio
-----------30--
Flag Italy
D'AVOLA Manuele
-----------39-21
Flag Italy
BOGGIA Stefano
-----------44-11
Flag Czech Republic
STYBAR Zdenek
------------11
Flag Czech Republic
KLOUCEK Lukas
------------6-
Flag Slovakia
GAVENDA Robert
------------9-
Flag Italy
FANELLI Ivan
------------13-
Flag Denmark
PARBO Joachim
------------14-
Flag Czech Republic
PRIHODA Lukas
------------19-
Flag Italy
GIUTOLI Gabriele
------------2734
Flag Italy
SAIU Giancarlo
------------29-
Flag Italy
BALBERINI Marco
------------3028
Flag Switzerland
MOOS Alexandre
-------------6
Flag Switzerland
CORMINBOEUF Yves
-------------14
Flag Italy
BOMPIERI Loris
-------------22
Flag Italy
BILATO Gabriele
-------------24
Flag Italy
GSCHNELL Manuel
-------------25
Flag Italy
DI RELLA Vincenzo
-------------26
Flag Italy
NANNINI Laerte
-------------27