13 February 2021
Eeklo, Belgium
 
20-21
C2
19-20
C2
17-18
C2
15-16
C2
14-15
C2
13-14
C2
12-13
C2
11-12
C2
10-11
C2
09-10
C2
08-09
C2
07-08
C2
06-07
C2
05-06
C2
Flag Belgium
HERMANS Quinten
1312101313--------
Flag Belgium
AERTS Toon
24928515-------
Flag Belgium
ISERBYT Eli
32DNF13----------
Flag Netherlands
VAN KESSEL Corné
4127-----------
Flag Belgium
VANDEPUTTE Niels
529------------
Flag Belgium
VANTHOURENHOUT Michael
66333226-------
Flag Belgium
SOETE Daan
758-----------
Flag Belgium
NYS Thibau
8-------------
Flag Belgium
VANDEBOSCH Toon
9-------------
Flag Switzerland
RÜEGG Timon
10-------------
Flag Belgium
LOOCKX Lander
11-DNF-----------
Flag Netherlands
VAN DER POEL David
12-19-25---------
Flag Belgium
FERDINANDE Anton
13-------------
Flag Netherlands
KAMP Ryan
14-------------
Flag Belgium
SWEECK Diether
15-1711--1925------
Flag Belgium
VERSTRYNGE Emiel
16-------------
Flag Belgium
MEEUSEN Tom
17814--1-2---1417-
Flag Belgium
BEKAERT Yentl
1820------------
Flag Belgium
DEJONGHE Len
19-------------
Flag Belgium
AERNOUTS Jim
209139-8916-211630--
Flag Netherlands
GODRIE Stan
211820-----------
Flag Belgium
WYSEURE Joran
22-------------
Flag Belgium
MEEUSSEN Witse
23-------------
Flag Netherlands
RONHAAR Pim
2432------------
Flag Belgium
KIELICH Timo
25-------------
Flag Switzerland
ROUILLER Loris
26-------------
Flag Belgium
HUYBS Ward
27-------------
Flag Belgium
UYTDEWILLIGEN Ingmar
28-382627---------
Flag Belgium
ALDERWEIRELD Robin
293132-----------
Flag Belgium
VAN LOOVEREN Joachim
30-------------
Flag Belgium
VERVOORT Wout
3128------------
Flag Belgium
VRACHTEN Arne
3426------------
Flag Belgium
VERHEYEN Thomas
36--28----------
Flag Belgium
SWEECK Laurens
DNF14-69249------
Flag Belgium
ADAMS Jens
DNF718-11710-------
Flag Netherlands
VAN DER HAAR Lars
DNF11------------
Flag Great Britain
MEIN Thomas
DNF27------------
Flag Belgium
BAESTAENS Vincent
DNF----17-7--20---
Flag Belgium
VERMEERSCH Gianni
-10612415612------
Flag Belgium
CLEPPE Nicolas
-1321-1521--------
Flag Belgium
AERTS Thijs
-14241623---------
Flag Belgium
VANTHOURENHOUT Dieter
-1510817-55325911-
Flag Belgium
GOEMAN Andreas
-16------------
Flag Belgium
CAMPS Jelle
-17------------
Flag Belgium
BELLENS Jarno
-19------------
Flag Belgium
MERLIER Braam
-2122-----------
Flag Belgium
DEWULF Maxim
-22------------
Flag Belgium
VANDEBOSCH Victor
-2336-----------
Flag Belgium
VLIEGEN Pieter-Jan
-24------------
Flag Belgium
DEBEIR Arno
-25------------
Flag Czech Republic
KOPECKY Tomás
-30------------
Flag Netherlands
VAN DER POEL Mathieu
--1-5---------
Flag Belgium
VAN AERT Wout
--21138-------
Flag Belgium
PAUWELS Kevin
--5-2---761171514
Flag Germany
MEISEN Marcel
--11--1223------
Flag Belgium
MERLIER Tim
--156710-812-----
Flag Germany
WALSLEBEN Philipp
--16--------11--
Flag Belgium
ADAMS Joeri
--231810-11----17--
Flag Belgium
VANTORNOUT Klaas
--255--20417214-
Flag Belgium
GOOSSENS Kobe
--26-16---------
Flag Switzerland
JACOBS Johan
--27-----------
Flag Belgium
CALUWE Stijn
--28-----------
Flag Belgium
JOSEPH Thomas
--291418---------
Flag Belgium
SCHUERMANS Jelle
--30-----------
Flag Belgium
VAN COMPERNOLLE Kenneth
--39-2116161451010-22-
Flag Belgium
VANDEKINDEREN Jens
--4415201425-------
Flag Czech Republic
SIMUNEK Radomir
---4-------4-13
Flag Belgium
NYS Sven
---79611-33-11
Flag Belgium
VANTHOURENHOUT Sven
---17124136---674
Flag Spain
RUIZ DE LARRINAGA IBANEZ Javier
---19----------
Flag United States
HYDE Stephen
---20----------
Flag France
MARECAILLE Antonin
---21-2232-------
Flag Belgium
CANT Kevin
---22302329--19----
Flag Belgium
HOFMAN Bart
---2322-182118-----
Flag Belgium
SWEECK Hendrik
---24----------
Flag Belgium
GYS Jens
---25----19-----
Flag Belgium
VAN DEN BOSCH Tom
---2724--13------
Flag France
CORBIHAN Yoann
---29----------
Flag Belgium
GOOSEN Wouter
---30----------
Flag France
DUBOIS Camille
---32-2739-------
Flag Czech Republic
BOROS Michael
----14---------
Flag Belgium
BRAET Vinnie
----19---1417----
Flag Belgium
VENS Quincy
----26---------
Flag Belgium
DE CLERCQ Angelo
----28---17-----
Flag France
LHOTELLERIE Clément
----29---------
Flag Switzerland
TARAMARCAZ Julien
-----117-------
Flag Poland
GIL Mariusz
-----1817-4914242617
Flag Belgium
DEGROOTE Jonas
-----19--------
Flag United States
PAGE Jonathan
-----2023-6----11
Flag Czech Republic
BINA Martin
-----243-------
Flag Belgium
CLAEYS Stef
-----25--------
Flag Belgium
DE SCHUYTER Tim
-----2636-------
Flag Australia
BOTH Nick
-----28--------
Flag Finland
VIHOLAINEN Teemu
-----29--------
Flag Belgium
BOSMANS Wietse
------4-------
Flag Belgium
WELLENS Bart
------12--172-3
Flag Czech Republic
ZLAMALIK Martin
------1420-11-19--
Flag Belgium
COMMEYNE Davy
------21------9
Flag Belgium
DENOLF Gianni
------2222131521282822
Flag Belgium
DENUWELAERE Jan
------27108-22---
Flag Belgium
DE DECKER Steven
------282316-----
Flag Belgium
RONDELEZ Bjorn
------30--23----
Flag Belgium
DE WISPELAERE Bert
------3124------
Flag Belgium
PENNE Stijn
------33----261818
Flag Belgium
VAN NUFFEL Tim
------35-201319218-
Flag Belgium
ALBERT Niels
-------11-41322
Flag Belgium
DE TIER Floris
-------15------
Flag Belgium
PEETERS Daniel
-------17------
Flag Czech Republic
HNIK Karel
-------18------
Flag Switzerland
GRAND Arnaud
-------19------
Flag Belgium
DENOLF Ritchie
-------2623-----
Flag Belgium
VAN DE VELDE Valentijn
-------2725-----
Flag Belgium
COUCKUYT Lorenz
-------28------
Flag Czech Republic
STYBAR Zdenek
--------25-1355
Flag Italy
FRANZOI Enrico
--------9-----
Flag Belgium
VAN GREMBERGEN Kendric
--------10-----
Flag Belgium
EECKHOUT Kevin
--------11--29--
Flag Belgium
BODEN Stef
--------15-----
Flag Belgium
BASSEZ Patrick
--------21--32--
Flag Slovakia
GAVENDA Robert
--------22-----
Flag Belgium
NEIRYNCK Kevin
--------24-----
Flag Belgium
ZEGERS Kristof
--------26-----
Flag Belgium
AERNOUTS Bart
---------89823-
Flag Czech Republic
PETRUS Lubomir
---------12----
Flag Belgium
PEETERS Rob
---------14--14-
Flag Poland
SZCZEPANIAK Kacper
---------16----
Flag Belgium
BERDEN Ben
---------18-1816-
Flag Czech Republic
POLNICKY Jiri
---------20----
Flag Belgium
SOETENS Jan
---------221823-10
Flag Poland
SZCZEPANIAK Pawel
---------24----
Flag Belgium
PAUWELS Dries
---------25----
Flag Belgium
GOVAERT Sam
---------26----
Flag Belgium
DE BACKER Bert
---------27----
Flag Belgium
VERVECKEN Erwin
----------456-
Flag Belgium
VERSTRAETEN Jan
----------616-8
Flag Netherlands
DE KNEGT Gerben
----------8--6
Flag Netherlands
AL Thijs
----------12---
Flag Switzerland
HEULE Christian
----------13---
Flag Italy
BIANCO Marco
----------15---
Flag Netherlands
GROENENDAAL Richard
----------17-97
Flag Belgium
CLARYSSE Nico
----------23202016
Flag Belgium
DIELEMAN Michiel
----------24---
Flag Belgium
COBBAERT Robby
----------25---
Flag Belgium
WELLENS Geert
----------2634-20
Flag Belgium
DE MEESTER Freddy
----------27---
Flag Zimbabwe
VIJARONA Jackson
----------28--29
Flag Belgium
CAUWELIER Dries
----------294334-
Flag France
MOUREY Francis
-----------10--
Flag Luxembourg
DRUCKER Jean-Pierre
-----------12-19
Flag Netherlands
BOOM Lars
-----------153-
Flag Belgium
BERTHOLET Quentin
-----------22--
Flag Belgium
JACOBS Wim
-----------25--
Flag Belgium
VAN DER LINDEN Wesley
-----------27--
Flag Belgium
DAELMANS Arne
-----------3110-
Flag Belgium
BOELENS Kristof
-----------352923
Flag Belgium
BOELENS Koen
-----------373025
Flag Spain
PENA RUIZ David
-----------3827-
Flag Czech Republic
AUSBUHER Kamil
------------12-
Flag Belgium
WILLEMSENS David
------------13-
Flag Belgium
HUYS Stijn
------------19-
Flag Belgium
ROODHOOFT Christoph
------------21-
Flag Belgium
DEBUSSCHERE Maxim
------------24-
Flag Belgium
DE CALUWE Steven
------------25-
Flag Zimbabwe
TSABALALA Nquobizitha
------------3230
Flag Belgium
VAN SANTVLIET Peter
-------------12
Flag Belgium
THIELEMANS Mike
-------------15
Flag Belgium
DE SCHEEMAEKER Davy
-------------21
Flag Zimbabwe
ZENGENI Brian
-------------24
Flag Zimbabwe
NGUNDU Prince
-------------26
Flag Belgium
HEIRBAUT Tony
-------------27
Flag Zimbabwe
KASECHA Brighton
-------------28