22 September 2019
Derby, Great Britain
British National Trophy Series
 
19-20
C2
18-19
C2
17-18
C2
16-17
C2
15-16
C2
14-15
C2
12-13
C2
11-12
C2
09-10
C2
08-09
C2
07-08
C2
06-07
C2
Flag Great Britain
MEIN Thomas
12DNF---------
Flag Belgium
MERLIER Braam
21----------
Flag Belgium
BELLENS Jarno
3-----------
Flag Belgium
BEKAERT Yentl
4-----------
Flag Belgium
MEEUSSEN Witse
5-----------
Flag Belgium
FERDINANDE Anton
6-----------
Flag Great Britain
FIELD Ian
7712122--56-
Flag Great Britain
BARNES Toby
89----------
Flag Belgium
DEJONGHE Len
9-----------
Flag Great Britain
TURNER Ben
105----------
Flag Great Britain
MACLEOD Callum
118----------
Flag Belgium
VANDEBOSCH Victor
12-----------
Flag Great Britain
TAYLOR Matthew
1316----------
Flag Great Britain
YOUNG Jenson
14-----------
Flag Netherlands
VERBURG Luke
15-----------
Flag Great Britain
MASON Cameron
1611----------
Flag Great Britain
JAMES Steven
171217241215108----
Flag Great Britain
CRAVEN Lewis
181881315861312-79
Flag Netherlands
VAN DER MEER Gosse
19-----------
Flag Great Britain
MARTIN Tom
202038---------
Flag Ireland
CONROY David
21-15---------
Flag Great Britain
MADGWICK James
2214132526-------
Flag Great Britain
THOMPSON George
23191215133033-----
Flag Belgium
VAN TICHELT Yorben
24DNF21-6------
Flag Great Britain
WOMERSLEY Jake
25-----------
Flag Great Britain
BUTLER Michael
26422592324------
Flag Great Britain
DENNIS Jonathan
2734----------
Flag Great Britain
CRAIG Nicholas
281721-612415--52
Flag Great Britain
DRAKE Giles
29289101018------
Flag Great Britain
HYDE James
30-19---------
Flag Belgium
LAPERE Kris
3122-----94---
Flag Great Britain
EARTH David
36323048--------
Flag Great Britain
PHILLIPS Neil
3729----------
Flag Great Britain
GIBBONS Max
412744---------
Flag Great Britain
METCALFE Chris
50DNF27412233373123---
Flag Great Britain
CHALMERS Scott
5247293325----26--
Flag Great Britain
WHITTALL Gareth
65414354-39243728---
Flag Great Britain
WATSON Robert
74-4759--341222---
Flag Great Britain
NAYLOR Andrew
76----2831-----
Flag Belgium
BOSMANS Wietse
-3----------
Flag Great Britain
TULETT Daniel
-4----------
Flag Great Britain
FERGUSON Grant
-6---1833----
Flag Great Britain
LEE Stephen
-10716--------
Flag Great Britain
HARDING Billy
-1345-23------
Flag Great Britain
MUNDY Isaac
-15----------
Flag Great Britain
FORRESTER Alexander
-21----------
Flag Great Britain
GRIFFITHS Joe
-23-22--------
Flag Great Britain
OLDHAM Paul
-24685-11524210
Flag Great Britain
CAMERON Euan
-25----------
Flag Great Britain
ALLEN Sam
-26----------
Flag Great Britain
FOX George
-301651--------
Flag Great Britain
GRIVELL-MELLOR Ewan
-354627--------
Flag Great Britain
ROBERTSON Finlay
-373621--------
Flag Great Britain
JONES Richard
-45-14--------
Flag Great Britain
PAYTON Tom
-50DNF3027-21-3919--
Flag United States
DURRIN Jeremy
--3---------
Flag Great Britain
FLETCHER David
--51111-56--8-
Flag Great Britain
PATON Iain
--10---------
Flag Great Britain
FAWCETT Tony
--11--1617-----
Flag Great Britain
CLARKSON Jack
--1468102027----
Flag Great Britain
BARNES Nicholas
--18491423-----
Flag Great Britain
WILLIAMS Joe
--2037--------
Flag Belgium
VAN DEN BOSCH Tom
--22-1639-----
Flag Great Britain
YATES Harry
--23---------
Flag Great Britain
CRAWFORTH Jody
--2418-11143-144
Flag Ireland
CAMERON Chris
--26---------
Flag Great Britain
SHORT Robin
--28---------
Flag Belgium
DE CLERCQ Angelo
---327------
Flag Belgium
DENUWELAERE Jan
---7--------
Flag Great Britain
BOOTH Daniel
---121422221110-126
Flag Great Britain
CREBER David
---17--------
Flag Great Britain
MARTIN Grant
---1921-------
Flag Great Britain
GRIVELL-MELLOR Luke
---20---17----
Flag Great Britain
ROACH Steven
---23413------
Flag Great Britain
PRITCHARD Stan
---26--------
Flag Great Britain
LEWIS William
---28--------
Flag Great Britain
PEAKE Joe
---29--------
Flag Great Britain
THOMPSON James
---56-29353646---
Flag Great Britain
BRIGGS Graham
----3-------
Flag Great Britain
SUMNER Ben
----751332----
Flag Great Britain
HUMPHREYS Jack
----173416-----
Flag Great Britain
CRAIG Thomas
----18-------
Flag Belgium
CALUWE Stijn
----19-------
Flag Great Britain
POOLE Jake
----20-------
Flag Great Britain
HARPER Jonathan
----2427------
Flag Great Britain
ELLISON Neil
----28-------
Flag Great Britain
PHELPS Jacob
----29-------
Flag Great Britain
BARRETT Matthew
----30--2819---
Flag Great Britain
ADAMS Stephen
----33--2220142023
Flag Great Britain
FURNISS James
----51---38-2515
Flag Great Britain
KILLEEN Liam
-----4------
Flag Great Britain
PATON Alex
-----918-----
Flag Great Britain
THOMPSON Michael
-----17------
Flag Great Britain
MARTIN Adam
-----19------
Flag Spain
SAGUES PORTABELLA Ramon
-----20------
Flag Great Britain
ROBINSON Hugo
-----21------
Flag Great Britain
RAVENSCROFT Jack
-----25------
Flag Great Britain
KIPLING Matthew
-----26------
Flag Great Britain
HARGROVES Andrew
-----31-21----
Flag Belgium
HOFMAN Joeri
------1-----
Flag Great Britain
BECKINGSALE Oliver
------3-----
Flag Great Britain
BIBBY Ian
------7---1-
Flag Great Britain
JEBB Robert
------12-9633
Flag Great Britain
COLLINS David
------15168-115
Flag Great Britain
BJERGFELT William
------1923-1521-
Flag Great Britain
JOHNSTONE Taylor
------2542----
Flag Great Britain
BRYAN Jim
------26----18
Flag Great Britain
DOYLE Crispin
------272421---
Flag Great Britain
DROGER Dieter
------28-----
Flag Great Britain
MURRAY Keith
------293834121414
Flag Great Britain
DALTON James
------30-----
Flag Belgium
BRACKMAN Jelle
-------1----
Flag Belgium
DE TIER Floris
-------2----
Flag Belgium
COP Kristof
-------45---
Flag Great Britain
WILLIAMS Lee
-------7-91711
Flag Belgium
LACROIX Dany
-------10----
Flag Great Britain
GALLAGHER Kenta
-------14----
Flag Great Britain
WESTWOOD Lee
-------18----
Flag Great Britain
NEWALL Jamie
-------19--18-
Flag Great Britain
MACDONALD Matt
-------20----
Flag Great Britain
LAST Tom
-------257---
Flag Belgium
SLUYTS Glenn
-------2635---
Flag Great Britain
NICHOLS Andrew
-------29----
Flag Great Britain
BARCLAY Darren
-------302911--
Flag Great Britain
NICHOLS David
-------3917---
Flag Great Britain
SHUNBURNE Lee
-------4025162620
Flag Great Britain
MAUDSLEY Simon
-------44-27--
Flag Germany
SICKMUELLER Johannes
--------1---
Flag Belgium
VAN DAEL Jan
--------3---
Flag Great Britain
WEARMOUTH Stuart
--------6398
Flag Great Britain
EEDY Ben
--------11-34-
Flag Great Britain
O'BOYLE Anthony
--------131322-
Flag Great Britain
DUGUID Daniel
--------14---
Flag Great Britain
LOWE Thomas
--------15---
Flag Great Britain
WARD Steven
--------16---
Flag Great Britain
PARKIN Rob
--------18---
Flag Great Britain
COTTON Mark
--------24-3227
Flag Great Britain
ROACH Ben
--------2622--
Flag Great Britain
SIMMONS Ben
--------27-24-
Flag Great Britain
ALDOUS Shaun
--------30---
Flag Great Britain
BALDWIN Tim
--------3320--
Flag Great Britain
MILLER Nathan
--------411730-
Flag Great Britain
HAYGARTH David
--------50182824
Flag Belgium
BERDEN Ben
---------2--
Flag Great Britain
BOWERS Stuart
---------7107
Flag Great Britain
THWAITES Scott
---------8--
Flag Great Britain
THWAITES Mark
---------101312
Flag Great Britain
JONES Stuart
---------21--
Flag Italy
FORZINI Marco
---------23--
Flag Great Britain
DINSDALE Elliot
---------24-30
Flag Great Britain
WIMBLE Robert
---------253829
Flag Italy
GRANDI Alessandro
----------15-
Flag Great Britain
JAMIESON Duncan
----------16-
Flag Great Britain
WILKINSON Ian
----------19-
Flag Great Britain
ROWNEY Paul
----------23-
Flag Great Britain
BATCHELOR Hamish
----------27-
Flag Great Britain
LAMPIER Steven
----------29-
Flag Great Britain
LEYLAND Mark
----------3128
Flag Great Britain
ANSELL Craig
----------3725
Flag Great Britain
DIXON Philip
-----------1
Flag Great Britain
KNIGHT Stephen
-----------13
Flag Great Britain
MONTGOMERIE Gareth
-----------16
Flag Great Britain
LEGG Ian
-----------17
Flag Great Britain
DENNING Craig
-----------19
Flag Great Britain
NIXON Alan
-----------21
Flag Great Britain
CLOUGH Noel
-----------22
Flag Great Britain
HOCKNELL Hugo
-----------26