10 January 2021
Vejle, Denmark
 
19-20
CN
18-19
CN
17-18
CN
16-17
CN
15-16
CN
14-15
CN
13-14
CN
12-13
CN
11-12
CN
10-11
CN
09-10
CN
08-09
CN
07-08
CN
06-07
CN
Flag Denmark
CARSTENSEN FINI Sebastian
1112----------
Flag Denmark
LINDBERG Jonas
2-------------
Flag Denmark
LAUGESEN Lasse
3-------------
Flag Denmark
LAUSTSEN Morten
4-5--55-------
Flag Denmark
GØTKE Rasmus
5-------------
Flag Denmark
MORTENSEN Martin
6-------------
Flag Denmark
NIELSEN Klaus
7DNF--3---------
Flag Denmark
NIELSEN Tommy
846564-3332332
Flag Denmark
HEILSKOV Niels Anton
96------------
Flag Denmark
JØRGENSEN Kasper Linde
109------------
Flag Denmark
KRISTENSEN Thorbjørn
118-18----------
Flag Denmark
KIRK Henrik
12118-1312--------
Flag Denmark
NIELSEN Kennie K.
1310------------
Flag Denmark
DICH Jens Christian
1416-22----------
Flag Denmark
THIDEMANN Peter
15DNF715----------
Flag Denmark
GENTILINO MARTINELLI Kenni
16DNF1113----------
Flag Denmark
ANDERSEN Frederik Thue
1713----13-------
Flag Denmark
WIETH Steffen
1812------------
Flag Denmark
SVENDSEN Anders Berendt
19-------------
Flag Denmark
PETERSEN Frederik
2015------------
Flag Denmark
HANSEN Kenneth
-2232-21113---
Flag Denmark
PARBO Joachim
-3444334521121
Flag Denmark
JUSTESEN Benjamin Wittrup
-5-651-5-513---
Flag Denmark
HØJSGAARD Rasmus
-7---20--------
Flag Denmark
BORUP Michael
-14------------
Flag Denmark
HEMMINGSEN Rune
-17------------
Flag Denmark
RASMUSSEN Sebastian
-18DNF-----------
Flag Denmark
SKIFFARD Henrik
-19------------
Flag Denmark
UHRENHOLT Matias
-20------------
Flag Denmark
NORDEN Kasper
-21------------
Flag Denmark
CHRISTIANSEN Simon
-22------------
Flag Denmark
KANNEGAARD Jesper
-DNF161720---------
Flag Denmark
RASMUSSEN Niels
--3---9-------
Flag Denmark
OSTERGAARD Nikolaj Ruud
--910--88------
Flag Denmark
LIBAK HANSEN Martin
--10-----------
Flag Denmark
NIELSEN Jesper
--121110---------
Flag Denmark
JOHANNESEN Kim
--13-----------
Flag Denmark
ISBAK Martin
--14-----------
Flag Denmark
BANG-SØRENSEN Kean
--15-----------
Flag Denmark
CHRISTIANSEN Christian Buhl
--17-----------
Flag Denmark
JOHNSEN Lars
--DNF812---------
Flag Denmark
REFSLUND Bjarke
--DNF-------19---
Flag Denmark
ANDREASSEN Simon
---11---------
Flag Denmark
LINDSEL Jacob
---7----------
Flag Denmark
JUUL Sebastien
---98-71615-----
Flag Denmark
AGER Paw
---12----------
Flag Denmark
NORDKROGGAARD Jonas
---14----------
Flag Denmark
REMIGIUS BERG Rasmus
---16--16-------
Flag Denmark
JENSEN Lars
---1918---------
Flag Denmark
HANSEN Martin Weiss
---201111---14----
Flag Denmark
ISAKSEN Mike
---2119-22-------
Flag Denmark
SLOTH Rasmus
---23-18--------
Flag Luxembourg
NISSEN Sören
----72----11---
Flag Denmark
JOHANSEN Philip
----9---------
Flag Denmark
WINTHER OLSEN Helgi
----14---------
Flag Denmark
HANSEN Thomas
----15---------
Flag Denmark
BYGVRAA Michael
----1614--------
Flag Denmark
OLSEN Jesper
----17--21------
Flag Denmark
NIELSEN Johnni
----21---------
Flag Denmark
HERFORTH JENSEN Dennis
-----64-------
Flag Denmark
LARSEN Martin
-----76-------
Flag Denmark
RASMUSSEN Andreas
-----810139-----
Flag Denmark
AGER Les
-----9--------
Flag Denmark
JENSEN Jan
-----10-11------
Flag Denmark
OLESEN Christian Gammelgaard
-----13--------
Flag Denmark
BRIXNER Anders
-----15--------
Flag Denmark
NIELSEN Alexander
-----16--------
Flag Denmark
SKYUM Henrik
-----17--------
Flag Denmark
QVORTRUP Simon
-----19--------
Flag Denmark
BISGAARD Anders
-----21--------
Flag Denmark
OVERGAARD Nicolai
-----22-18------
Flag Denmark
PEDERSEN Jonas
------1224----
Flag Denmark
JACOBSEN Peder
------11-------
Flag Denmark
ENGELS RYMING Alexander
------12-------
Flag Denmark
BERG Simon
------14-------
Flag Denmark
BAUNGAARD Emil
------15-------
Flag Denmark
TOFT Martin
------17-------
Flag Denmark
SKAARUP Casper
------18-------
Flag Denmark
PEDERSEN Kristian
------19-------
Flag Denmark
SMIDT LARSEN Michael
------20-------
Flag Denmark
PURKAER Jimmi
------21-------
Flag Denmark
RAVN Martin
------23-------
Flag Denmark
JØRGENSEN Stefan Linné
------24-------
Flag Denmark
THOMSEN Ole Bang
------25-------
Flag Denmark
PETERSEN Kim
-------6-98--6
Flag Denmark
OLSEN Emil Arvid
-------74-----
Flag Denmark
LISBYGD Dennis
-------9------
Flag Denmark
HANSEN Nicolaj
-------10------
Flag Denmark
ANDERSEN Henrik
-------12--6---
Flag Denmark
TERNSTRØM Torben
-------14-810---
Flag Denmark
ISAKSEN Lars
-------15---9811
Flag Denmark
IVERSEN Lars
-------17------
Flag Denmark
LUND ANDRESEN Karsten
-------191417----
Flag Denmark
LEZUIK Stefan
-------2016-----
Flag Denmark
HØGH CUBEL Claes
-------22------
Flag Denmark
JUUL Allan
--------6798--
Flag Denmark
VEIERGANG Henrik
--------7151716--
Flag Denmark
JACOBSEN Tommy
--------81215-108
Flag Denmark
SKOVGREN Danny
--------10-----
Flag Denmark
AALBAEK Nicolaj Isbrandt
--------11-----
Flag Denmark
NIELSEN Rene
--------12-----
Flag Denmark
HERSCHEND Mads
--------13-----
Flag Denmark
HAMMER Martin
--------17-----
Flag Denmark
OTTESEN Ivar
--------18-221813-
Flag Denmark
NICOLAISEN Nicolaj
--------191123-913
Flag Denmark
MADSEN Charles-René
--------20-----
Flag Denmark
JONASSON MADSEN Jesper
--------21-----
Flag Denmark
GUDDAL Jonas Schau
---------654--
Flag Denmark
THOMSEN Jesper
---------10-12-16
Flag Denmark
HELMER Henrik
---------13----
Flag Denmark
TERNDRUP Tommy
---------16----
Flag Denmark
JACOBSEN Rune
---------18-1415-
Flag Denmark
HANSEN Jannik Hyldtoft
----------45-9
Flag Denmark
KJELDSEN Jacob
----------7---
Flag Denmark
KOHBERG Michael
----------12107-
Flag Denmark
SVENDSEN Mats Bach
----------14---
Flag Denmark
EJAAS Lars
----------161314-
Flag Denmark
KOLBERG Heino
----------1815--
Flag Denmark
SØGAARD Lasse
----------20---
Flag Denmark
KOLLERUP JENSEN Jacob Frederik
----------21---
Flag Denmark
POULSEN Christian
-----------213
Flag Denmark
DAUGAARD KRISTENSEN Rasmus
-----------6-10
Flag Denmark
JENSEN Simon Tarp
-----------7--
Flag Denmark
HOLK Jacob
-----------11--
Flag Denmark
CHRISTENSEN Anders
-----------1717-
Flag Denmark
KLINKBY Anders
------------45
Flag Denmark
KRISTENSEN Rasmus
------------5-
Flag Denmark
BERING Jakob
------------67
Flag Denmark
RHODE Jakob Grønnebæk
------------11-
Flag Denmark
SØGAARD Kristian
------------12-
Flag Denmark
FREDERIKSEN Michael
------------16-
Flag Denmark
ANDERSEN John
------------DNF12
Flag Denmark
CARLSEN Allan
-------------4
Flag Denmark
CORNELIUSSEN Kalle
-------------14
Flag Denmark
HANSEN Jakob G.
-------------15