Location Mason, OH, United States
 
21-22
CJ
21-22
CJ
19-20
CJ
19-20
CJ
18-19
CJ
18-19
CJ
17-18
CJ
17-18
CJ
16-17
CJ
15-16
CJ
14-15
CJ
13-14
CJ
12-13
CJ
12-13
CJ
Flag Canada
ACKERT Ian
12------------
Flag United States
O'REILLY Frank
26------------
Flag United States
SPRANGER Jack
31------------
Flag United States
AUGUST Andrew
43------------
Flag United States
SHELTON Marcis
55------------
Flag United States
VEENENDAAL Vaughn
69------------
Flag United States
WHITE Magnus
77------------
Flag United States
BROWN Ian
814------------
Flag Canada
DE GROOTE Theo
913------------
Flag United States
BRATETIC Gus
1011------------
Flag United States
KING Carden
1115------------
Flag United States
CUSACK Nathan
1219------------
Flag United States
ENGLISH Daniel
134------------
Flag United States
CONAWAY Henry
1420------------
Flag United States
TOOLEY Beckett
158------------
Flag United States
STOKES Ben
1612------------
Flag United States
MULLALY Kevin
1718------------
Flag United States
AVERY Ryan
1821------------
Flag United States
WESCOTT Tanner
1916------------
Flag Canada
SWEET Benjamin
2023------------
Flag United States
EMMERT Phillip
2127------------
Flag United States
ZOLLMAN Nathan
2228------------
Flag United States
CHILD Asa
2317------------
Flag United States
GILSON Jacob
2425------------
Flag United States
WEINSTEIN Gavin
2526------------
Flag United States
AYALA Ahmir
2631------------
Flag United States
COLEMAN Evan
DNF10------------
Flag United States
JACKSON Malachi
DNF22------------
Flag United States
BALLARD Owen
DNF29------------
Flag United States
MILLER Carmine
-24------------
Flag United States
KELLY Broden
-30------------
Flag United States
STROHMEYER Andrew
--1151--------
Flag United States
SHEFFIELD Magnus
--221DNF--------
Flag United States
SCOTT Jared
--3943--------
Flag United States
STIERWALT Lucas
--4374--------
Flag United States
SERVETAS Tommy
--5DNF----------
Flag United States
MCDONALD Ian
--6111114--------
Flag United States
JOHNSON Kyle
--74----------
Flag United States
BRENNEMAN Owen
--88----------
Flag United States
WILLIAMS Jamie
--917139--------
Flag Canada
BRISEBOIS Hugo
--1015----------
Flag United States
ZAKRAJSEK Dylan
--117----------
Flag Great Britain
PALMER Max
--1212----------
Flag United States
HLUDZINSKI Vin
--136----------
Flag United States
PARKER Tayton
--1425----------
Flag United States
SELL Brock
--1518----------
Flag United States
ELPHINGSTONE Luke
--1616----------
Flag United States
AUGUST Trevor
--1722----------
Flag United States
PETROV Nicholas
--1814----------
Flag United States
GARAOUY Cole
--1924----------
Flag United States
GALLEGO Ivan
--2013----------
Flag United States
AMALONG John Paul
--2110DNF10--------
Flag United States
UETRECHT Ryder
--22585--------
Flag United States
SWINAND Peter
--2320----------
Flag United States
RAND Noah
--2426----------
Flag United States
CHILD Orion
--2529----------
Flag United States
DOBROZSI Gabriel
--2628----------
Flag United States
WILLIAMS Ian
--2721----------
Flag United States
AUGUST Owen
--2819----------
Flag United States
SALAZAR-GARCIA Nicholas
--2931----------
Flag United States
VIGIL Noah
--3030----------
Flag United States
KASCH Alex
--DNF23----------
Flag United States
CORBY Alex
---27----------
Flag United States
MORTON Alex
----2622------
Flag United States
CARTER Nick
----32--------
Flag United States
MCNEILL Dillon
----6786------
Flag United States
BICKMORE Torin
----9867------
Flag United States
VAN KEMPEN Jules
----1012--------
Flag United States
KNOWLES Nathan
----121199------
Flag United States
DOBRIENT Byrne
----1415--------
Flag United States
SKOV Luke
----1513--------
Flag United States
MALMBERG Jordy
----1618--------
Flag United States
ZAMZOW-MASTERS Ryan
----1717--------
Flag United States
ZAKRAJSEK Jack
----1816--------
Flag United States
KUPER Jacob
----1919--------
Flag United States
MAHER Lane
------111-----
Flag United States
GOMEZ VILLAFANE Benjamin
------3421-----
Flag United States
GUNSALUS Gregory
------4510-----
Flag United States
NOEL Sam
------53------
Flag United States
BAILEY Anthony
------712------
Flag United States
REYNOLDS Tyler
------1010------
Flag United States
ALLWEIN Enzo
------11831-----
Flag United States
RAWLS Amai
------1213------
Flag United States
MCCORMACK Alex
------13DNF------
Flag United States
JEDLICKA Ethan
------1414------
Flag United States
FRANCISCO Thomas
------1511------
Flag United States
KIRKPATRICK BAIRD Leo
------16-------
Flag United States
STEPHENSON Denzel
--------24----
Flag United States
BOOTS Kendrick
--------3-----
Flag Canada
HOLMGREN Gunnar
--------4-----
Flag Canada
CLARK Tyler
--------5-----
Flag United States
GOGUEN Kevin
--------6-----
Flag United States
SWARTZ Caleb
--------710----
Flag Canada
PALAMAREK Ethan
--------8-----
Flag United States
BEIRNE Nicholas
--------926----
Flag United States
WOOD Calder
--------11-----
Flag United States
ELLWOOD Ross
--------1213----
Flag United States
FUNSTON Scott
--------13-----
Flag United States
LOGUE Sebastian
--------14-----
Flag United States
SOTEBEER Drew
--------1524----
Flag United States
BRYANT Isaac
--------16-----
Flag United States
SMITH Tyler
--------17-----
Flag United States
BROOKS Camden
--------18-----
Flag United States
BRUNNER Nolan
--------19-----
Flag United States
BUCHANAN Brayden
--------20-----
Flag United States
DAVIS Wheeler
--------22-----
Flag Canada
RINDISBACHER Vivien
--------2320----
Flag Canada
SANDERSON Brody
--------248----
Flag United States
CHRISTIAN Alexander
--------2530----
Flag United States
YOUNG Zachary
--------2628----
Flag United States
SCHULZ George
--------2716----
Flag United States
VAUGHN Daniel
--------28-----
Flag United States
BUSCH Owen
--------29-----
Flag United States
ROCKWOOD Dylan
--------30-----
Flag United States
HECHT Gage
---------11---
Flag United States
BEARD Cameron
---------24---
Flag United States
CLOUSE Evan
---------3----
Flag United States
BRUNNER Eric
---------5----
Flag United States
PETROV Spencer
---------63---
Flag Canada
STAPLES Graydon
---------7----
Flag United States
OWENS Michael
---------910---
Flag United States
JENKINS Nicholas
---------11----
Flag United States
TANNER Jack
---------1213---
Flag United States
BICKMORE Cade
---------1416---
Flag United States
LEWIS Jordan
---------1532---
Flag United States
BAILEY Cassidy
---------17----
Flag United States
COPPOLILLO Henry
---------18----
Flag Australia
BARROW Noah
---------19----
Flag Canada
ORSCHEL Tyler
---------21----
Flag United States
MCGILL Scott
---------22----
Flag Canada
BARTON Malcolm
---------23----
Flag United States
GREATHOUSE Tristan
---------25----
Flag United States
SMITH Garrett
---------27----
Flag United States
PADILLA Nicolas
---------29----
Flag United States
HALEY Gavin
----------2---
Flag United States
DUFOUR Jerry
----------5---
Flag United States
FIX Brannan
----------67--
Flag Canada
BOERSMA Willem
----------7---
Flag United States
BLEVINS Christopher
----------8---
Flag United States
REYNOLDS Ethan
----------9---
Flag United States
HAIDET Lance
----------114--
Flag United States
WILLSEY Cooper
----------121--
Flag United States
SANDUSKY Rob
----------14---
Flag United States
BROWNE Tanner
----------1513--
Flag United States
GEARY Evan
----------17---
Flag United States
MCSHANE Ian
----------189--
Flag United States
BROWN Jonathan
----------1910--
Flag United States
ROSENBERG Sam
----------20---
Flag United States
FRITZINGER Jedidiah
----------21---
Flag United States
THOMPSON Jake
----------2222--
Flag United States
MCKNIGHT Stuart
----------23---
Flag United States
WATKINS Ben
----------24---
Flag United States
BAIRD Adin
----------25---
Flag United States
KEY Chris
----------266--
Flag United States
MOOREFIELD Silas
----------27---
Flag Canada
HOWARD Jacob
----------28---
Flag United States
VORWERK Nicholas
----------2918--
Flag United States
ROSS Zachary
----------30---
Flag United States
LONGENECKER Josiah
----------3119--
Flag United States
GOGUEN Peter
-----------2-3
Flag United States
LOMBARDO David
-----------356
Flag United States
VINCENT Austin
-----------5--
Flag United States
BRADY Nolan
-----------81911
Flag United States
GERCHAR Garrett
-----------11--
Flag United States
OWENS Matthew
-----------121016
Flag United States
WHITTEMORE Nevin
-----------14--
Flag United States
SCHMUTTE Ben
-----------15--
Flag United States
HAUPT Ian
-----------161510
Flag United States
O'BRIEN David
-----------172020
Flag United States
KLAUSSEN Luke
-----------20--
Flag United States
KINGSBURY Trever
-----------21--
Flag United States
WHITE Curtis
------------11
Flag United States
DOWNING Spencer
------------25
Flag United States
BASSETT Stephen
------------34
Flag United States
MORSE Nathaniel
------------42
Flag United States
FRANCISCO John
------------69
Flag United States
WEIK Josey
------------77
Flag United States
DYGERT Gunner
------------812
Flag United States
ROCHELEAU Lionel
------------914
Flag United States
MCPHERSON Ian
------------1117
Flag United States
CHANCE Maxx
------------128
Flag United States
BAILEY Andrew
------------1319
Flag United States
MACKEY Skyler
------------1423
Flag United States
BEEMER Luke
------------1615
Flag United States
ANDERSON Jonathan
------------1713
Flag United States
SIMON Cooper
------------1822
Flag United States
TANKERSLEY Nolan
------------2118
Flag United States
SROKA Robert
------------2221
Flag United States
MCQUEEN Nolan
------------2324
Flag United States
SCHILLING Jacob
-------------25