21-22
CN
20-21
CN
19-20
CN
18-19
CN
17-18
CN
16-17
CN
15-16
CN
14-15
CN
13-14
CN
12-13
CN
11-12
CN
10-11
CN
09-10
CN
08-09
CN
Flag Belgium
VAN AERT Wout
11521113------
Flag Belgium
SWEECK Laurens
24114232-------
Flag Belgium
HERMANS Quinten
37111110---------
Flag Belgium
ADAMS Jens
41596512-15------
Flag Belgium
VERMEERSCH Gianni
5667119-11------
Flag Belgium
VANTHOURENHOUT Michael
63736742710-----
Flag Belgium
AERTS Toon
7231455-------
Flag Belgium
SOETE Daan
810-17313--------
Flag Belgium
VANDEBOSCH Toon
916------------
Flag Belgium
MEEUSEN Tom
10131012DNF6924105-3-
Flag Belgium
MERLIER Tim
1154DNF7487------
Flag Belgium
AERTS Thijs
12-85----------
Flag Belgium
VANDEPUTTE Niels
13-------------
Flag Belgium
SWEECK Diether
148DNFDNF151512-------
Flag Belgium
VRACHTEN Arne
1520------------
Flag Belgium
ROMBOUTS Seppe
1627------------
Flag Belgium
LOOCKX Lander
171119-----------
Flag Belgium
SIEMONS Julian
1835------------
Flag Belgium
BEKAERT Yentl
1918------------
Flag Belgium
WUYTS Mathijs
20-------------
Flag Belgium
GYS Jens
21362423304029-------
Flag Belgium
UYTDEWILLIGEN Ingmar
2229172028252131------
Flag Belgium
VAN COMPERNOLLE Kenneth
23-181820211914-128713-
Flag Belgium
ROELANDT Kenny
24-232527-31-------
Flag Belgium
PEERS Nick
25-------------
Flag Belgium
VERHEYEN Thomas
262620-----------
Flag Belgium
CAREME Grégory
27-------------
Flag Belgium
DE MEYER Senne
28-2724----------
Flag Belgium
DEGROOTE Jonas
29---21---------
Flag Belgium
TORMANS Siebe
30-DNF-----------
Flag Belgium
LEARTS Yelle
31-292731---------
Flag Belgium
KOYEN Niels
37-333033412622------
Flag Belgium
BAESTAENS Vincent
DNF19DNF16161469--13---
Flag Belgium
ALDERWEIRELD Robin
DNF2422DNF----------
Flag Belgium
ISERBYT Eli
DNFDNF24DNF19--------
Flag Belgium
AERNOUTS Jim
-9121313810135812---
Flag Belgium
KIELICH Timo
-12------------
Flag Belgium
VERSTRYNGE Emiel
-14------------
Flag Belgium
FERDINANDE Anton
-17------------
Flag Belgium
BELMANS Lennert
-21------------
Flag Belgium
SIEBENS Gianni
-22------------
Flag Belgium
HUYBS Ward
-23------------
Flag Belgium
MEEUSSEN Witse
-25------------
Flag Belgium
VERVOORT Wout
-28------------
Flag Belgium
VAN DEN BROECK Arno
-30------------
Flag Belgium
VANTHOURENHOUT Dieter
--13DNFDNF1611-6-6857
Flag Belgium
BOSMANS Wietse
--1499DNF--79----
Flag Belgium
PEETERS Yannick
--1515----------
Flag Belgium
SMETS Gert
--16-----------
Flag Belgium
VANKEIRSBILCK Berne
--2122----------
Flag Belgium
TIELEN Dario
--25DNF2936--------
Flag Belgium
DE BIE Sean
--26-----------
Flag Belgium
WILLEMYNS Mathieu
--282132343032------
Flag Belgium
HENNAUX Loïc
--3028----------
Flag Belgium
CLEPPE Nicolas
--DNF1014---------
Flag Belgium
DE WIT Edwin
--DNF2623DNF3243------
Flag Belgium
SWEECK Hendrik
--DNF-2431-38------
Flag Belgium
PAUWELS Kevin
---8827583103103
Flag Belgium
MEURISSE Xandro
---19----------
Flag Belgium
TEIRLINCK Jens
---29----------
Flag Belgium
MERLIER Braam
---DNF1717--------
Flag Belgium
VANTORNOUT Klaas
----1210-1-1-52-
Flag Belgium
ADAMS Joeri
----18DNF1328--11---
Flag Belgium
VERHEYEN Onno
----1923--------
Flag Belgium
VAN TICHELT Yorben
----22DNF--------
Flag Belgium
HUYS Stijn
----252022------16
Flag Belgium
HOEYBERGHS Daan
----2629--------
Flag Belgium
PEETERS Rob
----DNF11156253948
Flag Belgium
DE CLERCQ Angelo
-----182018------
Flag Belgium
JASPERS Jappe
-----22--------
Flag Belgium
HOFMAN Bart
-----242319------
Flag Belgium
BRAET Vinnie
-----262417------
Flag Belgium
VANDEKINDEREN Jens
-----2718-------
Flag Belgium
VENS Quincy
-----282833------
Flag Belgium
DE CLEYN Dave
-----302525------
Flag Belgium
CANT Kevin
-----321730------
Flag Belgium
DE WISPELAERE Bert
-----333535-----26
Flag Belgium
NYS Sven
------34121-11
Flag Belgium
VANTHOURENHOUT Sven
------1416--4674
Flag Belgium
DENUWELAERE Jan
------168-11710--
Flag Belgium
DE DECKER Steven
------27------27
Flag Belgium
VAN DEN BOSCH Tom
------3823---121512
Flag Belgium
GAUDY Patrick
-------10------
Flag Belgium
WELLENS Bart
-------1236-2145
Flag Belgium
BRACKMAN Jelle
-------20------
Flag Belgium
VANSPEYBROUCK Pieter
-------21------
Flag Belgium
VANDEVELDE Ruben
-------24------
Flag Belgium
WALLAYS Jelle
-------26--1613--
Flag Belgium
PENNE Stijn
-------29-----21
Flag Belgium
AERNOUTS Bart
--------979466
Flag Belgium
ALBERT Niels
---------42192
Flag Belgium
COMMEYNE Davy
---------13----
Flag Belgium
BERTHOLET Quentin
----------14---
Flag Belgium
WAEYTENS Zico
----------15---
Flag Belgium
VERSTRAETEN Jan
-----------11129
Flag Belgium
VERVECKEN Erwin
------------8-
Flag Belgium
BERDEN Ben
------------1110
Flag Belgium
VAN NUFFEL Tim
-------------11
Flag Belgium
VAN GREMBERGEN Kendric
-------------13
Flag Belgium
VAN DER LINDEN Wesley
-------------14
Flag Belgium
WELLENS Geert
-------------15
Flag Belgium
BERCKMANS Nico
-------------17
Flag Belgium
RONDELEZ Bjorn
-------------18
Flag Belgium
LAPERE Kris
-------------19
Flag Belgium
THIELEMANS Mike
-------------20
Flag Belgium
CLARYSSE Nico
-------------22
Flag Belgium
BASSEZ Patrick
-------------23
Flag Belgium
DE KORT Tom
-------------24
Flag Belgium
VERSCHUEREN Bart
-------------25
Flag Belgium
GRUWIER Steve
-------------28
Flag Belgium
DEVENYNS Toon
-------------29
Flag Belgium
JACOBS Wim
-------------30