9 January 2021
Meulebeke, Belgium
 
19-20
CN
18-19
CN
17-18
CN
16-17
CN
15-16
CN
14-15
CN
13-14
CN
12-13
CN
11-12
CN
10-11
CN
09-10
CN
08-09
CN
07-08
CN
06-07
CN
Flag Belgium
SWEECK Laurens
114232---------
Flag Belgium
ISERBYT Eli
24DNF19----------
Flag Belgium
AERTS Toon
31455---------
Flag Belgium
MERLIER Tim
4DNF7487--------
Flag Belgium
VAN AERT Wout
521113--------
Flag Belgium
VERMEERSCH Gianni
67119-11--------
Flag Belgium
VANTHOURENHOUT Michael
736742710-------
Flag Belgium
AERTS Thijs
85------------
Flag Belgium
ADAMS Jens
96512-15--------
Flag Belgium
MEEUSEN Tom
1012DNF6924105-3---
Flag Belgium
HERMANS Quinten
111110-----------
Flag Belgium
AERNOUTS Jim
121313810135812-----
Flag Belgium
VANTHOURENHOUT Dieter
13DNFDNF1611-6-68577-
Flag Belgium
BOSMANS Wietse
1499DNF--79------
Flag Belgium
PEETERS Yannick
1515------------
Flag Belgium
SMETS Gert
16-------------
Flag Belgium
UYTDEWILLIGEN Ingmar
172028252131--------
Flag Belgium
VAN COMPERNOLLE Kenneth
181820211914-128713---
Flag Belgium
LOOCKX Lander
19-------------
Flag Belgium
VERHEYEN Thomas
20-------------
Flag Belgium
VANKEIRSBILCK Berne
2122------------
Flag Belgium
ALDERWEIRELD Robin
22DNF------------
Flag Belgium
ROELANDT Kenny
232527-31---------
Flag Belgium
GYS Jens
2423304029---------
Flag Belgium
TIELEN Dario
25DNF2936----------
Flag Belgium
DE BIE Sean
26-------------
Flag Belgium
DE MEYER Senne
2724------------
Flag Belgium
WILLEMYNS Mathieu
282132343032--------
Flag Belgium
LEARTS Yelle
292731-----------
Flag Belgium
HENNAUX Loïc
3028------------
Flag Belgium
KOYEN Niels
333033412622--------
Flag Belgium
CLEPPE Nicolas
DNF1014-----------
Flag Belgium
BAESTAENS Vincent
DNF16161469--13-----
Flag Belgium
DE WIT Edwin
DNF2623DNF3243--------
Flag Belgium
SWEECK Diether
DNFDNF151512---------
Flag Belgium
SWEECK Hendrik
DNF-2431-38--------
Flag Belgium
PAUWELS Kevin
-88275831031038-
Flag Belgium
SOETE Daan
-17313----------
Flag Belgium
MEURISSE Xandro
-19------------
Flag Belgium
TEIRLINCK Jens
-29------------
Flag Belgium
MERLIER Braam
-DNF1717----------
Flag Belgium
VANTORNOUT Klaas
--1210-1-1-52-62
Flag Belgium
ADAMS Joeri
--18DNF1328--11-----
Flag Belgium
VERHEYEN Onno
--1923----------
Flag Belgium
DEGROOTE Jonas
--21-----------
Flag Belgium
VAN TICHELT Yorben
--22DNF----------
Flag Belgium
HUYS Stijn
--252022------16--
Flag Belgium
HOEYBERGHS Daan
--2629----------
Flag Belgium
PEETERS Rob
--DNF1115625394812-
Flag Belgium
DE CLERCQ Angelo
---182018--------
Flag Belgium
JASPERS Jappe
---22----------
Flag Belgium
HOFMAN Bart
---242319--------
Flag Belgium
BRAET Vinnie
---262417--------
Flag Belgium
VANDEKINDEREN Jens
---2718---------
Flag Belgium
VENS Quincy
---282833--------
Flag Belgium
DE CLEYN Dave
---302525--------
Flag Belgium
CANT Kevin
---321730--------
Flag Belgium
DE WISPELAERE Bert
---333535-----26-23
Flag Belgium
NYS Sven
----34121-1113
Flag Belgium
VANTHOURENHOUT Sven
----1416--467494
Flag Belgium
DENUWELAERE Jan
----168-11710----
Flag Belgium
DE DECKER Steven
----27------27--
Flag Belgium
VAN DEN BOSCH Tom
----3823---12151216-
Flag Belgium
GAUDY Patrick
-----10--------
Flag Belgium
WELLENS Bart
-----1236-214521
Flag Belgium
BRACKMAN Jelle
-----20--------
Flag Belgium
VANSPEYBROUCK Pieter
-----21--------
Flag Belgium
VANDEVELDE Ruben
-----24--------
Flag Belgium
WALLAYS Jelle
-----26--1613----
Flag Belgium
PENNE Stijn
-----29-----211812
Flag Belgium
AERNOUTS Bart
------97946657
Flag Belgium
ALBERT Niels
-------421923-
Flag Belgium
COMMEYNE Davy
-------13------
Flag Belgium
BERTHOLET Quentin
--------14-----
Flag Belgium
WAEYTENS Zico
--------15-----
Flag Belgium
VERSTRAETEN Jan
---------11129-13
Flag Belgium
VERVECKEN Erwin
----------8-45
Flag Belgium
BERDEN Ben
----------111013-
Flag Belgium
VAN NUFFEL Tim
-----------1111-
Flag Belgium
VAN GREMBERGEN Kendric
-----------13--
Flag Belgium
VAN DER LINDEN Wesley
-----------14-11
Flag Belgium
WELLENS Geert
-----------152429
Flag Belgium
BERCKMANS Nico
-----------1715-
Flag Belgium
RONDELEZ Bjorn
-----------18-14
Flag Belgium
LAPERE Kris
-----------1932-
Flag Belgium
THIELEMANS Mike
-----------201918
Flag Belgium
CLARYSSE Nico
-----------222217
Flag Belgium
BASSEZ Patrick
-----------2328-
Flag Belgium
DE KORT Tom
-----------242316
Flag Belgium
VERSCHUEREN Bart
-----------25--
Flag Belgium
GRUWIER Steve
-----------283425
Flag Belgium
DEVENYNS Toon
-----------29--
Flag Belgium
JACOBS Wim
-----------3017-
Flag Belgium
NERINCKX Stefan
-----------32-30
Flag Belgium
SOETENS Jan
------------109
Flag Belgium
DAELMANS Arne
------------1410
Flag Belgium
VAN DEN BRANDE Kay
------------20-
Flag Belgium
COENEN Davy
------------21-
Flag Belgium
VAN DER VEKEN Jorn
------------2515
Flag Belgium
BAELEN Pedro
------------26-
Flag Belgium
VAN CROMBRUGGEN Geert
------------2727
Flag Belgium
VERBIST Evert
------------29-
Flag Belgium
TIELENS Jimmy
------------30-
Flag Belgium
DE CALUWE Steven
------------3124
Flag Belgium
VAN SANTVLIET Peter
-------------6
Flag Belgium
WILLEMSENS David
-------------8
Flag Belgium
GILBERT Philippe
-------------19
Flag Belgium
WERCKX Gerry
-------------20
Flag Belgium
ROODHOOFT Christoph
-------------21
Flag Belgium
DAVID Nicky
-------------22
Flag Belgium
TRAEN Bjorn
-------------26
Flag Belgium
PYNAERT Tom
-------------28