Telenet Superprestige Diegem (CJ)

Diegem, Belgium
30-12-2018
 
18-19
CJ
17-18
CJ
16-17
CJ
15-16
CJ
14-15
CJ
13-14
CJ
12-13
CJ
11-12
CJ
10-11
CJ
09-10
CJ
08-09
CJ
07-08
CJ
06-07
CJ
05-06
CJ
MEEUSSEN Witse
1-------------
TULETT Ben
2-------------
CORTJENS Ryan
312------------
HUYBS Ward
4-------------
ASKEY Lewis
5-------------
VERVOORT Wout
611------------
VERBURG Luke
716------------
BELMANS Lennert
8-------------
VREESWIJK Noah
923------------
KARS Hugo
10-------------
VAN LOOVEREN Joachim
11-------------
PEIRENS Yente
12-------------
MORTON Alex
13-------------
JEZEK Tomás
1422------------
BIRCHILL Harry
15-------------
STRIK Dylan
16-------------
ALVARADO Salvador
17-------------
COREMANS Dante
18-------------
MALEZSEWSKI Lukas
1920------------
UHLIG Henri
20-------------
CAS Stijn
21-------------
PIDCOCK Joseph
22-------------
MCGUIRE Rory
23-------------
HLADIK Josef
2445------------
DELNOIJE Rémon
2532------------
ANDRESEN Tobias Lund
26-------------
CAPRA Manuel
27-------------
COUZENS Tom
28-------------
VAN KEMPEN Jules
29-------------
CLACY Barney
30-------------
ROUILLER Loris
-110-----------
KAMP Ryan
-2------------
KOPECKY Tomás
-34-----------
KUYPERS Gerben
-4------------
BELLENS Jarno
-534-----------
VANDEPUTTE Niels
-66-----------
HENDRIKX Mees
-77-----------
DE VET Sander
-817-----------
DEWULF Maxim
-9------------
JORDENS Jarno
-1037-----------
VAN DEN EYNDE Vince
-1328-----------
SCHIERL Jakub
-14------------
VAN DEN BROECK Arno
-1511-----------
TOUPALIK Jakub
-17------------
FLYNN Sean
-18------------
KLUCKERS Arthur
-19------------
PRIES Cédric
-21------------
RIMAN Jakub
-24------------
ARTZ Bart
-2526-----------
INGUANZO MACHO Gonzalo
-26------------
BREL Antoine
-2740-----------
CUCU Arno
-28------------
KNIGHT Harrison
-29------------
KNIGHT Jacob
-30------------
HORNY Clément
-3718-----------
CLYNHENS Jens
-4123-----------
CAMPS Jelle
--142----------
VANDEBOSCH Toon
--2-----------
ARENSMAN Thymen
--37----------
GOEMAN Andreas
--514----------
HOLMGREN Gunnar
--857----------
AGTERBERG Kyle
--9-----------
VERDONCK Andres
--12-----------
HAZEKAMP Bart
--13-----------
MAHER Lane
--14-----------
VRACHTEN Arne
--15-----------
STEPHENSON Denzel
--1620----------
SPRANGERS Lloyd
--19-----------
SIEMONS Julian
--20-----------
THYS Joren
--21-----------
TULETT Daniel
--2222----------
LEMMENS Sander
--24-----------
VAN HELVOIRT Koen
--2524----------
SWARTZ Caleb
--27-----------
VAN RILLAER Witse
--29-----------
SANDERSON Brody
--3048----------
VERMEERSCH Florian
--465----------
JASPERS Jappe
---12---------
DEKKER Jens
---29---------
PETROV Spencer
---332---------
HECHT Gage
---44---------
BAUTERS Reno
---6----------
DRIESEN Jarne
---86---------
DHOORE Alessio
---9----------
WOLSINK Thijs
---10----------
ROMBOUTS Seppe
---11----------
BRUNNER Eric
---12----------
DE CLERCQ Jari
---13----------
MÖBIS Maximilian
---15----------
CULLELL ESTAPE Jofre
---16----------
TURNER Ben
---17----------
GAGNAIRE Maxime
---18----------
BEARD Cameron
---1926---------
BEKAERT Yentl
---21----------
VANDEBOSCH Victor
---23----------
TIELEMANS Jente
---25----------
CLOUSE Evan
---26----------
MÄRKL Niklas
---27----------
GAVENDA Jan
---28----------
VAN GOETHEM Fabio
---29----------
RUDOLPH Poul
---30----------
ISERBYT Eli
----12--------
JACOBS Johan
----317--------
GULICKX Max
----514--------
VAN DER HEIJDEN Maik
----7---------
SIEBENS Gianni
----8---------
SALA Stefano
----10---------
ROSSI Giorgio
----11---------
GROOT Mitch
----12---------
HALEY Gavin
----1316--------
DEVOS Han
----1426--------
HERMANS Briek
----1533--------
MUSKENS Mart
----16---------
LIESSENS Jarno
----17---------
WILLSEY Cooper
----1842--------
HAIDET Lance
----1932--------
BOUWMANS Dylan
----20---------
CROLLET Yari
----2123--------
HELSOCHT Liam
----22---------
MANDELLI Federico
----23---------
DUNN Liam
----2435--------
DE MAEGHT Dorian
----2541--------
SIEMONS Stijn
----27---------
ROBERT Esteban
----28---------
GRAB Joël
----29---------
STEEGMANS Einar
----30---------
VERHEYEN Thomas
----3427--------
PEETERS Yannick
-----1--------
GOOSSENS Kobe
-----36-------
VAN HECKE Elias
-----417-------
LEHKY Roman
-----5--------
SCHUERMANS Jelle
-----6--------
JOSEPH Thomas
-----728-------
TEIRLINCK Jens
-----835-------
WOUTERS Sieben
-----921-------
VERHEYEN Nick
-----10--------
VERBRAKEN Jorn
-----1134-------
GOGUEN Peter
-----1236-------
JACOBS Sybren
-----13--------
VAN ROOSBROECK Pieter
-----1522-------
HOFMAN Stijn
-----18--------
GIL Remigiusz
-----1931-------
VAN DIJKE Koen
-----20--------
CHANCE Maxx
-----2127-------
REYNOLDS Ethan
-----22--------
BRADY Nolan
-----24--------
GERCHAR Garrett
-----2547-------
VAN DEN KLUNDERT Pim
-----28--------
ELLWOOD Grant
-----29--------
VRANA Dominik
-----30--------
VAN DONINK Gianni
-----3425-------
VAN DER POEL Mathieu
------11------
OWEN Logan
------28------
HERMANS Quinten
------35------
CLEPPE Nicolas
------410------
DEGROOTE Jonas
------533------
BOETS Ben
------719------
WIJKEL Stan
------8-------
VAN LAER Ward
------9-------
AERTS Thijs
------10-------
GAY Raphael
------1122------
JANSEN Richard
------12-------
HAVOT Sébastien
------13-------
MORICHON Mathieu
------1423------
VAN DEN DRIESSCHE Din
------1524------
ORTILLON Valentin
------16-------
DE VOCHT Jochen
------18-------
AMEEL Alexander
------1927------
COOLEN Yves
------20-------
PHILIBERT Aurelien
------23-------
DEROUINT Maxime
------24-------
MORSE Nathaniel
------2652------
VANDERAERDEN Massimo
------2939------
BASSETT Stephen
------3055------
JAUREGUI Quentin
-------2------
VAN AERT Wout
-------3------
SOETE Daan
-------411-----
WEIJERS Koen
-------655-----
VAN DE VELDE Matthias
-------7------
VAN TICHELT Yorben
-------9------
VANKEIRSBILCK Berne
-------1143-----
DILLMAN Andrew
-------1231-----
VAN BEEK Pjotr
-------1328-----
BUDDING Martijn
-------14------
KRAMER Erik
-------1516-----
KOWALSKI Dylan
-------1633-----
ARIESEN Tim
-------1717-----
VEROFT Jelto
-------1820-----
PALUTA Michal
-------20------
WOUTERS Toon
-------2121-----
MERLIER Braam
-------25------
VANDEN DRIES Jelle
-------26------
WELBURN Alexander
-------28------
WHITE Curtis
-------29------
HUYGEN Tijs
-------30------
VAN POPPEL Danny
--------12----
SWEECK Laurens
--------24----
GODRIE Stan
--------3-----
VANDEKINDEREN Jens
--------4-----
SKALA Jakub
--------5-----
PEETERS Daniel
--------6-----
VERBERNE Douwe
--------720----
DE MAN Jaap
--------8-----
VANTHOURENHOUT Michael
--------9-----
ECKMANN Yannick
--------1017----
AERTS Toon
--------12-----
BRUSSELMAN Twan
--------1325----
MEDEK Tomas
--------14-----
NIPL Vojtech
--------1522----
VAN DEN DRIESSCHE Niels
--------1828----
VAN ROOYEN Bryan
--------19-----
FOX Bjorn
--------22-----
SWEECK Diether
--------2312----
BOHATA Tomas
--------24-----
ROBINSON Hugo
--------25-----
PEPERMANS Lorenzo
--------2631----
MEIJERS Jeroen
--------2737----
COUCKUYT Jens
--------29-----
JOHNSTONE Taylor
--------30-----
TEUNISSEN Mike
---------19---
VAN DER POEL David
---------316---
BOSMAN Gert-Jan
---------5----
ADAMS Jens
---------630---
BOROS Michael
---------7----
VAN DER HEIJDEN Michiel
---------84---
MEURISSE Xandro
---------915---
PAPRSTKA Tomas
---------10----
LASAK Matej
---------11----
VERMEERSCH Gianni
---------13----
MÜLLER Lukas
---------1414---
BAELEN Jesper
---------1521---
POLNICKY Radek
---------16----
HOFMAN Joeri
---------18----
VESELY Daniel
---------19----
FORSTER Lars
---------21----
CARESMEL Alexis
---------23----
MCLAY Daniel
---------24----
LIENHARD Fabian
---------26----
PILIS Bartosz
---------27----
BOUTTÉ Kenzie
---------29----
BÖHM-GRÄBER Wenzel
---------30----
CHAVANNE Gabriel
---------3228---
EISING Tijmen
----------12--
VAN DER HAAR Lars
----------218--
BOSMANS Wietse
----------311--
VAN KESSEL Corné
----------517--
MCDONALD Zach
----------634--
DE CLERCQ Angelo
----------7---
DE VOCHT Bart
----------8---
KRAUWEL Bas
----------1015--
KOYEN Niels
----------1127--
MANNION Gavin
----------1229--
MEIJERS Daan
----------1339--
BARBEN Emilien
----------17---
GEERTS Frederik
----------18---
SCHEIRE Ruben
----------19---
LUGTEN Jelle
----------20---
GRAND Anthony
----------22---
EMSKY Eric
----------2336--
BRAET Vinnie
----------24---
PEETERS Karl
----------25---
VAN BEUSEKOM Wilco
----------26---
STAUBLE Dario
----------27---
KAISER Cody
----------29---
SAGAN Peter
-----------1--
RUPP Matthias
-----------3--
BODEN Stef
-----------4--
VAN DER HORST Geert
-----------511-
VAN KEIRSBULCK Guillaume
-----------6--
GRAND Arnaud
-----------7--
OCKELOEN Jasper
-----------8--
DE BIE Sean
-----------9--
VAN DER SANDEN Harm
-----------1024-
WILLEMS Zeb
-----------129-
BEELEN Sven
-----------13--
GEETS Simon
-----------1446-
SLENTER Kaj
-----------16--
VEESTRAETEN Ruben
-----------1923-
SMIT Kevin
-----------2029-
BOSSUYT Matthias
-----------21--
DIELEMAN Michiel
-----------2222-
KOWALSKI Rudy
-----------23--
WALSLEBEN Max
-----------24--
COBBAERT Robby
-----------25--
VREYS Mike
-----------2634-
BERVOETS Jonathan
-----------2826-
VAN LEIJEN Steven
-----------3016-
BARKHUIS Bart
-----------3227-
ADAMS Joeri
------------119
VAN DEN BRAND Twan
------------2-
SUMMERHILL Daniel
------------318
SINKELDAM Ramon
------------415
EECKHOUT Kevin
------------5-
COP Kristof
------------628
VERBOVEN Sven
------------7-
BAESTAENS Vincent
------------89
PIROTTE Pieter-Jan
------------10-
VAN DER VELDE Rob
------------1229
LACROIX Dany
------------13-
MOTKÉ Ritchie
------------14-
MCEVOY Jonathan
------------15-
THWAITES Scott
------------17-
BEUKER Jordy
------------1816
TOWNSEND Jerome
------------19-
MARIEN Kenneth
------------20-
SCHEIRS Kristof
------------21-
PIZZY Kaëll
------------25-
LENNON Jim
------------28-
WORSECH Sean
------------30-
MEEUSEN Tom
-------------1
ATZORI Umberto
-------------2
DE VREESE Laurens
-------------3
CANT Kevin
-------------4
VANENDERT Dennis
-------------5
DE DECKER Bjorn
-------------6
VAN COMPERNOLLE Kenneth
-------------7
SELANDER Bjorn
-------------8
VERNAECKT Thomas
-------------10
WYDOOGHE Yannick
-------------11
DEBUSSCHERE Tim
-------------12
HUENDERS Mitchell
-------------13
VERHAEGHE Glen
-------------14
VAN ACKER Nivard
-------------17
HERMANS Bart
-------------20
DEKKERS Jeroen
-------------21
VAN ZEEBROECK Jan
-------------22
ARIESEN Johim
-------------23
VAN DER SANDEN Geert
-------------24
DE CLEYN Dave
-------------25
PAUWELS Dries
-------------26
MEISEN Marcel
-------------27
FLAVIGNY Xavier
-------------30