10-11-2019
Silvelle, Italy
 
19-20
CC
18-19
CC
17-18
CC
16-17
CC
15-16
CC
14-15
CC
13-14
CC
12-13
CC
11-12
CC
10-11
CC
09-10
CC
08-09
CC
07-08
CC
06-07
CC
NYS Thibau
13------------
MICHELS Jente
2-------------
LILLO Dario
326------------
VAN CAMPENHOUT Jetze
4-------------
BELMANS Lennert
5-------------
DE PRETTO Davide
6-------------
BRENNER Marco
736------------
CASTILLE Noé
8-------------
VERSTRYNGE Emiel
9-------------
ANANIE Ugo
10-------------
SOMMER Lars
1123------------
LELANDAIS Rémi
12-------------
ZATLOUKAL Jan
1317------------
DEL GROSSO Tibor
14-------------
MASCIARELLI Lorenzo
15-------------
LAURYSSEN Yorben
16-------------
MCGUIRE Rory
17-------------
WANG Gustav
18-------------
ANCHAIN Paul
19-------------
PAHLKE Jasper Levi
2047------------
HUYBS Ward
216------------
KOPECKY Matyas
22-------------
VAN LIEROP Danny
23-------------
WYLLIE Simon
2431------------
GROENENDAAL Bailey
25-------------
STOCKWELL Oliver
26-------------
BITTNER Pavel
2742------------
BRINKMAN Joost
28-------------
HALTER Jean-Luc
29-------------
CARRICK-ANDERSON Corran
30-------------
KARS Hugo
3112------------
SULC David
3514------------
ALVARADO Salvador
4921------------
RONHAAR Pim
-15-----------
MEEUSSEN Witse
-2------------
VERMOOTE Jelle
-4------------
TOUPALIK Jakub
-518-----------
VERBURG Luke
-733-----------
LINDNER Tom
-821-----------
VERVOORT Wout
-9------------
CORTJENS Ryan
-10------------
VREESWIJK Noah
-11------------
HUBY Antoine
-13------------
VAN DER DRIFT Twan
-15------------
JEZEK Tomás
-1629-----------
RICHARD ANDRADE Florian
-18------------
GUDNITZ Joshua Amos
-19------------
VERCHER Mattéo
-2043-----------
TONEATTI Davide
-22------------
HEUER Markus Kaad
-24------------
BARNES Daniel
-25------------
ANDRESEN Tobias Lund
-27------------
THOMAS Théo
-28------------
KUCERA Jakub
-29------------
HUEZ Emanuele
-30------------
ROUILLER Loris
--126----------
KOPECKY Tomás
--224----------
TULETT Ben
--3-----------
KAMP Ryan
--4-----------
FLYNN Sean
--6-----------
BELLENS Jarno
--7-----------
VAN DEN EYNDE Vince
--8-----------
VAN DEN BROECK Arno
--9-----------
KRYNSKI Piotr
--10-----------
HENDRIKX Mees
--1116----------
DELBOVE Joris
--12-----------
FONTANA Filippo
--1315----------
KUYPERS Gerben
--14-----------
VANDEPUTTE Niels
--15-----------
DEWULF Maxim
--16-----------
ASKEY Lewis
--17-----------
CHARRIN Alois
--19-----------
SCHÄTTI Luca
--2044----------
COURRIERE Anthony
--22-----------
KESS Nicolas
--2349----------
SCHIERL Jakub
--24-----------
DEL GROSSO Bodi
--25-----------
RIMAN Jakub
--26-----------
RIVET Benjamin
--27-----------
HNIK Jakub
--28-----------
ARTZ Bart
--3029----------
PIDCOCK Thomas
---18---------
GUILLEMIN Nicolas
---2----------
KIELICH Timo
---3----------
BENOIST Antoine
---4----------
RAUGEL Antoine
---5----------
BONSERGENT Maxime
---6----------
TURNER Ben
---721---------
MONTAUBAN Jérémy
---8----------
GOEMAN Andreas
---924---------
KERRAUD Erwann
---10----------
CAMPS Jelle
---11----------
VANDEBOSCH Toon
---1211---------
BEKAERT Yentl
---13----------
ARENSMAN Thymen
---145---------
HAZEKAMP Bart
---17----------
CHEVALIER Maxime
---18----------
AGTERBERG Kyle
---19----------
FAVARO Patrick
---20----------
VANICEK Simon
---21----------
VALOGNES Thibault
---22----------
FRIJTERS Perry
---23----------
MEIN Thomas
---25----------
VLIEGEN Pieter-Jan
---27----------
BARNES Toby
---28----------
HONZAK David
---3035---------
DEKKER Jens
----1---------
GROOT Mitch
----2---------
BONNET Thomas
----316--------
VERMEERSCH Florian
----4---------
KUHN Kevin
----624--------
SIEBENS Gianni
----719--------
NAVARRO Quentin
----9---------
COLMAN Alex
----10---------
TURGIS Tanguy
----1218--------
ROMBOUTS Seppe
----13---------
DHOORE Alessio
----148--------
JELINEK Josef
----1544--------
JASPERS Jappe
----162--------
BREZINA Jonas
----1736--------
FOLCARELLI Antonio
----1817--------
NOORDAM Marino
----19---------
CRISPIN Mickaël
----20---------
WOLSINK Thijs
----2211--------
BASSANI Michele
----23---------
DE CLERCQ Jari
----25---------
ANDRESEN Andreas Lund
----2648--------
JARY David
----27---------
XILLO Edoardo
----28---------
SIRUCEK Vaclav
----2953--------
RUDOLPH Poul
----3030--------
ISERBYT Eli
-----16-------
JACOBS Johan
-----37-------
GULICKX Max
-----4--------
ANDREASSEN Simon
-----5--------
VAN DER HEIJDEN Maik
-----6--------
SALA Stefano
-----724-------
DORIGONI Jakob
-----9--------
HENRIET Mehdy
-----10--------
FLOREN Wesley
-----12--------
DUJARDIN Sandy
-----13--------
HERMANS Briek
-----14--------
ROSSI Giorgio
-----1530-------
CORDS Ludwig
-----2031-------
PAUWELS Tijl
-----21--------
MANDELLI Federico
-----22--------
BOER Erik
-----23--------
BOUWMANS Dylan
-----25--------
TIELEMANS Jente
-----26--------
ULIK Matej
-----2729-------
CHARMIG Anthon
-----28--------
MATEJCEK Martin
-----29--------
KUNT Lukas
-----3525-------
GRAB Joël
-----3828-------
VOJIR Jaroslav
-----4123-------
PEETERS Yannick
------13------
TOUPALIK Adam
------213------
GRAS Yan
------3-------
DUBAU Lucas
------4-------
GOOSSENS Kobe
------57------
SCHUERMANS Jelle
------8-------
CALUWE Stijn
------923------
HAVOT Sébastien
------10-------
EENKHOORN Pascal
------11-------
NIEUWENHUIS Joris
------12-------
VAN HECKE Elias
------13-------
DUBAU Joshua
------14-------
AERTS Thijs
------15-------
VAN DONINK Gianni
------16-------
LEHKY Roman
------1726------
VAN DIJKE Koen
------18-------
WOUTERS Sieben
------19-------
JANSSEN Tim
------20-------
RÜEGG Timon
------21-------
DEJMEK Martin
------22-------
KOVAR Jan
------26-------
BELLAN Juraj
------27-------
VAN DER POEL Mathieu
-------11-----
RUSSO Clement
-------2------
BUDDING Martijn
-------4------
CLEPPE Nicolas
-------5------
BERTOLINI Gioele
-------612-----
JOSEPH Thomas
-------8------
HERMANS Quinten
-------910-----
JANSEN Richard
-------10------
POKORNY Karel
-------1120-----
KÖNIG Marco
-------1219-----
WOMERSLEY Jake
-------14------
VAN LAER Ward
-------15------
MEILER Lukas
-------16------
GESBERT Elie
-------17------
COSNEFROY Benoit
-------18------
MÜLLER Manuel
-------19------
GRAB Dominic
-------2024-----
VITZTHUM Simon
-------2131-----
RAVENSCROFT Jack
-------22------
VAN DER HEIJDEN Bjorn
-------24------
AUERBACHER Adrian
-------25------
KING Adam
-------27------
FRANKLIN Harry
-------28------
HARDING Billy
-------29------
VASTL Jan
-------30------
JAUREGUI Quentin
--------23----
SEIGLE Romain
--------3-----
VAN AERT Wout
--------4-----
TURGIS Anthony
--------5-----
VAN DE VELDE Matthias
--------617----
WEIJERS Koen
--------721----
SOETE Daan
--------838----
VAN BEEK Pjotr
--------937----
VAN TICHELT Yorben
--------11-----
HOEYBERGHS Daan
--------1318----
ROBINSON Hugo
--------1426----
ARIESEN Tim
--------15-----
VALDRIGHI Stefano
--------16-----
MOSES Joseph
--------1744----
RIBERA Jose Manuel
--------18-----
SUAREZ FERNANDEZ Kevin
--------21-----
PEDANTE Francesco
--------22-----
REDAELLI Riccardo
--------23-----
LINDENAU Max
--------25-----
COLLEDANI Nadir
--------26-----
NOVACEK Tomas
--------27-----
LUKES Daniel
--------28-----
MALOVEC Lubos
--------2949----
GRUNER Yannick
--------3047----
FORSTER Lars
---------113---
SKALA Jakub
---------242---
BOUVARD Kévin
---------4----
SWEECK Laurens
---------52---
DE MAN Jaap
---------6----
ZURLO Federico
---------7----
DOUBEY Fabien
---------8----
VANTHOURENHOUT Michael
---------9----
SWEECK Diether
---------1028---
GODRIE Stan
---------11----
GELABERT Benjamin
---------12----
VAN POPPEL Danny
---------1310---
PEETERS Daniel
---------14----
NIPL Vojtech
---------1525---
HERKLOTZ Silvio
---------16----
SAMPARISI Lorenzo
---------19----
MEDEK Tomas
---------20----
LIENHARD Fabian
---------2222---
CANEVA Tommaso
---------23----
LEHMANN Julian
---------2431---
HAMPL Petr
---------25----
VENTURINI Clément
---------27----
SCAPOLAN Enrico
---------28----
SLATER Alistair
---------29----
KRAMER Erik
---------30----
VIENNET Emilien
----------125--
VAN DER HEIJDEN Michiel
----------315--
TEUNISSEN Mike
----------418--
BOSMAN Gert-Jan
----------5---
ADAMS Jens
----------6---
DOLFSMA Emiel
----------7---
LASAK Matej
----------832--
BOROS Michael
----------920--
VANDEKINDEREN Jens
----------11---
VERMEERSCH Gianni
----------12---
PAPRSTKA Tomas
----------14---
VESELY Daniel
----------15---
MENUT David
----------16---
TODARO Fabio Alfonso
----------17---
DUCULTY Bastien
----------18---
BÖHM-GRÄBER Wenzel
----------19---
LEBRAS Clément
----------20---
MEURISSE Xandro
----------21---
EHLINGER Julien
----------23---
POLNICKY Radek
----------2413--
VAN DER POEL David
----------26---
SAMPARISI Nicolas
----------27---
SANTINI Pietro
----------29---
MCLAY Daniel
----------3037--
EISING Tijmen
-----------14-
VAN DER HAAR Lars
-----------2--
DE BIE Sean
-----------3--
NESVADBA Jan
-----------4--
FALASCHI Bryan
-----------523-
GARSON Pierre
-----------68-
HADOUX Valentin
-----------721-
BRAIDOT Luca
-----------8--
HNIK Karel
-----------99-
BOSSUYT Matthias
-----------1010-
TURGIS Jimmy
-----------11--
BRAIDOT Daniele
-----------12--
BOSMANS Wietse
-----------1433-
BARBEN Emilien
-----------16--
BRAET Vinnie
-----------1725-
DASSONVILLE Flavien
-----------19--
VAN DE VELDE Valentijn
-----------21--
MÜLLER Lukas
-----------22--
TATTO Michele
-----------23--
DENOLF Ritchie
-----------24--
GENEVRIER Nicolas
-----------26--
DE CLERCQ Angelo
-----------27--
VAN KESSEL Corné
-----------28--
GRAND Anthony
-----------2940-
QUAST Enno
-----------30--
PETRUS Lubomir
------------123
JOUFFROY Arnaud
------------2-
SAGAN Peter
------------37
SCHERZ Valentin
------------531
KONWA Marek
------------65
MARVAN Peter
------------745
GRAND Arnaud
------------1122
BODEN Stef
------------126
LACROIX Dany
------------13-
DANNER Fabian
------------1454
DALL'OSTE Daniele
------------15-
CESSOT Jonathan
------------16-
COLEDAN Massimo
------------1743
BALANNEC Christophe
------------1827
ARU Fabio
------------19-
SILVESTRI Elia
------------2019
FRIML Jakub
------------22-
BEELEN Sven
------------24-
ADEL Filip
------------268
ZIMINE Boris
------------27-
LENDENMANN Gregor
------------2844
BENDA Marek
------------2938
THWAITES Scott
------------3021
VAN DER HORST Geert
------------3625
SMIT Kevin
------------DNF30
BAESTAENS Vincent
-------------1
ADAMS Joeri
-------------2
SINKELDAM Ramon
-------------3
GIRARD Thomas
-------------4
AERNOUTS Jim
-------------9
QUAST Ole
-------------10
BRUYNDONCKX Bart
-------------11
VAN DEN BRAND Twan
-------------12
EECKHOUT Kevin
-------------13
RAMSIK Radovan
-------------14
MCEVOY Jonathan
-------------15
CALDERAN Alessandro
-------------16
VAN DER VELDE Rob
-------------17
RUPP Matthias
-------------18
GUILLOUX Freddie
-------------20
TABOURY Thibault
-------------24
SIMORA Marian
-------------26
GRIMAL Jérémy
-------------28
STEVENS Dimitri
-------------29