14 October 2018
Gloucester, MA, United States
Vittoria Northeast Cyclocross Series
 
18-19
C2
17-18
C2
16-17
C2
15-16
C2
14-15
C2
13-14
C2
12-13
C2
11-12
C2
10-11
C2
09-10
C2
08-09
C2
07-08
C2
06-07
C1
05-06
C1
Flag United States
WHITE Curtis
1312418--------
Flag United States
MAHER Lane
2-------------
Flag United States
CLARK Anthony
37-1014162227------
Flag United States
ORTENBLAD Tobin
41-15----------
Flag United States
WILLSEY Cooper
545-----------
Flag United States
DRISCOLL James
6--5276534312--
Flag United States
PETROV Spencer
79------------
Flag United States
NOEL Sam
8-------------
Flag United States
LANDO Nicholas
91423-----------
Flag United States
OWENS Michael
101320-----------
Flag United States
DAVIS Merwin
11--35----------
Flag Canada
ST. JOHN Derrick
12-1321-2835-119-21--
Flag Canada
DAIGLE Marc-Andre
13172126--28-4727-31--
Flag United States
BORDEN Andrew
142928-----------
Flag United States
MYERSON Adam
1521223028212722131410132136
Flag United States
COLLINS Patrick
163619-----------
Flag United States
LANDRY Michael
17-------------
Flag United States
FREDERICK Ben
18--16----------
Flag United States
MINOTT Addison
19-------------
Flag Canada
BELANGER BARRETTE Mathieu
20-------------
Flag United States
SUNDQUIST Christian
2139------------
Flag United States
HORSLEY Bryan
2227------------
Flag United States
KELLER Breeze
23-------------
Flag United States
GOMEZ VILLAFANE Benjamin
24-------------
Flag United States
NIESEN Christopher
2541------------
Flag United States
RYAN Benjamin
26-------------
Flag United States
OWENS Matthew
272340-----------
Flag Canada
MALTAIS David
28-47-----------
Flag United States
CURRAN Sean
29-------------
Flag United States
LEBLANC Jacob
30-------------
Flag United States
SCOTT Andy
311517-----------
Flag United States
CURTIS Zachary
322044-----------
Flag United States
GRIFFO Gregg
372852-----------
Flag United States
POWERS Ben
4126------------
Flag United States
LOAIZA Andrew
462455-5868--------
Flag United States
POWERS Jeremy
DNF2-1112123-912-
Flag United States
KISSEBERTH Jack
DNFDNF1417----------
Flag United States
LINDINE Justin
-5-12--1789165-39-
Flag United States
SMITH Scott
-6124026---------
Flag United States
SELANDER Bjorn
-8------------
Flag United States
MCCORMACK Brendan
-10------------
Flag United States
BEARD Cameron
-11------------
Flag United States
O'KEEFE Sam
-121528-38--------
Flag Canada
MCNEELY Evan
-16-183024212021-----
Flag United States
GOGUELY Jules
-1818-60---------
Flag United States
LOGUE Clyde
-19------------
Flag United States
RABADI Christopher
-22------------
Flag United States
WILLIS Tim
-2542-----------
Flag United States
MORSE Nathaniel
-3027-----------
Flag United States
MCNICHOLAS Dylan
-3475116-11101218----
Flag Canada
VAN DEN HAM Michael
--222-33--------
Flag United States
SUMMERHILL Daniel
--37-------60--
Flag United States
CRAIG Adam
--4---------62
Flag United States
DECKER Carl
--6---------139
Flag France
MARECAILLE Antonin
--8-----------
Flag United States
DURRIN Jeremy
--9-6-2412------
Flag United States
LIVERMON Travis
--101312-1825------
Flag United States
CHABANOV Daniel
--11322045334226-----
Flag United States
MURPHY Evan
--16--4463-------
Flag United States
ANTHONY Jesse
--24---54-61071-5
Flag United States
ST. GERMAIN Adam
--25--3546---31---
Flag United States
FREYRE Eneas
--26-------2325--
Flag United States
BUTLER Case
--29-----------
Flag United States
GRENIER Benjamin
--3045----------
Flag United States
HYDE Stephen
---395--------
Flag United States
TREBON Ryan
---4-21-14-1-11
Flag United States
DODGE Cameron
---6525--------
Flag Switzerland
WINTERBERG Lukas
---8311-13------
Flag Belgium
BERDEN Ben
---97433------
Flag United States
WERNER Kerry
---1119---------
Flag Canada
GAGNE Raphael
---14-14--------
Flag United States
MARION Robert
---1921374540------
Flag Canada
MARTIN Jeremy
---20-17--------
Flag United States
HAIDET Lance
---23----------
Flag Canada
MCCONNELL Mark
---24----------
Flag United States
KAISER Cody
---25----------
Flag Canada
GARRIGAN Mike
---2711131511-13-2041-
Flag United States
RYAN Alex
---29----------
Flag United States
KEOUGH Nicholas
---634627323024-941--
Flag United States
KEOUGH Jesse
---684834404428-----
Flag United States
TIMMERMAN Dan
----8-23--74-9-
Flag United States
MILNE Shawn
----109--1723----
Flag United States
WICKS Barry
----13-1315----43
Flag United States
JOHNSON Timothy
----15342112224
Flag United States
FAVATA Christian
----172219-25-2030--
Flag United States
PAGE Jonathan
----18----2----
Flag Great Britain
ROBINSON Hugo
----22---------
Flag United States
GAFFNEY Lewis
----23---------
Flag Canada
L'ESPERANCE Andrew
----243625-------
Flag United States
DILLON Joshua
----25--23-1911---
Flag United States
VINCENT Austin
----27---------
Flag New Zealand
REVELL Alexander
----29---------
Flag United States
BURNS John
----415859-373325365273
Flag United States
TOWNSEND Jerome
----4726-141011-14--
Flag United States
FRIDRICH Cary
----5062645629-----
Flag Canada
LALIBERTÉ Thierry
----55-604527403756--
Flag United States
ECKMANN Yannick
-----610-------
Flag United States
WELLS Troy
-----8-----104215
Flag United States
SCHOUTEN Tristan
-----10998----19
Flag United States
KRUGHOFF Allen
-----12--------
Flag Canada
RICHEY Craig
-----152026------
Flag Canada
BOUCHARD Leandre
-----19--------
Flag United States
RHIM Brendan
-----20--------
Flag Canada
MCLEOD Garrett
-----2344-------
Flag United States
SAMPSON Thomas
-----293865-39----
Flag United States
GOGUEN Manny
-----30261734-----
Flag Canada
LAFLAMME Aroussen
-----47--3043----
Flag United States
MCDONALD Zach
------57------
Flag Great Britain
FIELD Ian
------7-------
Flag France
BAZIN Nicolas
------86------
Flag Denmark
PARBO Joachim
------1221-8----
Flag United States
MATTER Brian
------14------53
Flag United States
WHITE Bradley
------16-------
Flag United States
TONKIN Eric
------29-----1510
Flag Canada
DESGRENIERS Joël
------30-------
Flag United States
MCCORMACK Mark
------43----836
Flag United States
HUSEBY Johannes
------57-----2832
Flag United States
WOLFSON Kevin
------72-39-1523--
Flag Switzerland
HEULE Christian
-------4------
Flag United States
O'KEEFE Matthew
-------1620-133227-
Flag United States
KEOUGH Luke
-------181522----
Flag Belgium
VAN NUFFEL Tim
-------19-17----
Flag Switzerland
MÜLLER Lukas
-------24------
Flag Canada
BATTY Mark
-------28------
Flag United States
KING Edward
-------29------
Flag Canada
BAKKER Osmond
-------31-301215--
Flag United States
LEECH Ryan
-------32-----18
Flag United States
DONAHUE Alec
-------35--18--41
Flag United States
WONG Philip
-------3716-----
Flag United States
WULFKUHLE Andrew
-------47-24----
Flag United States
BRADLEY Patrick
-------52-25----
Flag United States
HAMBLEN Jonathan
-------53---17--
Flag Italy
DAMIANI Luca
--------4-----
Flag Italy
FRATTINI Davide
--------512145--
Flag Switzerland
SCHERZ Valentin
--------7-----
Flag United States
WEIGHALL Nicholas
--------18-----
Flag United States
FISHER Steve
--------19-----
Flag Canada
LAMBERT-LEMAY Simon
--------22-----
Flag Canada
HUGHES Zachary
--------23-----
Flag Canada
GOODFELLOW William
--------31-30---
Flag United States
AWERBUCH Jonathan
--------69-26---
Flag United States
JACQUES-MAYNES Andy
---------56-1624
Flag United States
JONES Christopher
---------6-325-
Flag United States
DUGAN William
---------152916-47
Flag United States
HACKWORTHY David
---------20----
Flag United States
GILMOUR Ethan
---------21-37--
Flag United States
VISINSKI Rickey
---------2622---
Flag United States
MARZOT Charles
---------281726-64
Flag United States
FITZPATRICK Kirt
---------29----
Flag United States
SUNDT Jonathan
---------34--29-
Flag United States
WHITE Matthew
----------872012
Flag United States
KEOUGH Jacobe
----------16---
Flag United States
WARD Nathaniel
----------1933--
Flag United States
KRAUS Matt
----------21191914
Flag United States
JOHNSON Tyler
----------24---
Flag United States
GALLAGHER Michael
----------27-3221
Flag Canada
MACDONALD Warren
----------28---
Flag Germany
URBAN Malte
-----------4--
Flag United States
SHRIVER Matt
-----------6147
Flag Canada
REAIN Greg
-----------11--
Flag Canada
TOULOUSE Mathieu
-----------185-
Flag United States
NEYENS Daniel
-----------22-61
Flag United States
SOLAR Ward
-----------2453-
Flag Canada
BOX Erik
-----------27--
Flag Canada
SIMARD Benoit
-----------283831
Flag United States
DEARBORN-BOILARD Corey
-----------29--
Flag United States
WELLS Todd
------------7-
Flag United States
JACQUES-MAYNES Ben
------------8-
Flag United States
BAKER Jonathan
------------108
Flag United States
HORNER Christopher
------------11-
Flag United States
BRADFORD-PARISH Kevin
------------17-
Flag United States
CAMERON Molly
------------1834
Flag United States
MCGOVERN Christopher
------------2228
Flag United States
GILLESPIE Bart
------------23-
Flag United States
SPINELLI Justin
------------2417
Flag United States
DWIGHT Brandon
------------2627
Flag United States
MACKIE Ian
------------30-
Flag United States
ROBINSON Justin
------------4025
Flag United States
TAYLOR Noah
------------4330
Flag United States
SKERRITT Shannon
-------------11
Flag United States
KELLY Matt
-------------13
Flag Canada
WEDGE Peter
-------------16
Flag Belgium
RAEYMAKERS Sten
-------------20
Flag Canada
MEIER Christian
-------------22
Flag United States
TURNER Ben
-------------23
Flag United States
O'CONNOR Ryan
-------------26
Flag United States
OBYE Alan
-------------29