13 October 2018
Gloucester, MA, United States
Vittoria Northeast Cyclocross Series
 
18-19
C2
17-18
C2
16-17
C2
15-16
C2
14-15
C2
13-14
C2
12-13
C1
11-12
C1
10-11
C2
09-10
C2
08-09
C2
07-08
C2
06-07
C1
05-06
C2
Flag United States
WHITE Curtis
1412819--------
Flag United States
KISSEBERTH Jack
267-----------
Flag United States
DRISCOLL James
3--44365524111517
Flag United States
WILLSEY Cooper
474-----------
Flag United States
PETROV Spencer
52------------
Flag United States
MAHER Lane
6-------------
Flag United States
ORTENBLAD Tobin
71-9----------
Flag United States
CLARK Anthony
85-1116161733------
Flag United States
NOEL Sam
9-------------
Flag United States
GOMEZ VILLAFANE Benjamin
10-------------
Flag United States
OWENS Michael
111722-----------
Flag United States
LANDO Nicholas
121527-----------
Flag United States
DAVIS Merwin
13--40----------
Flag United States
FREDERICK Ben
14--24----------
Flag Canada
DAIGLE Marc-Andre
15212130--3745---46--
Flag United States
BORDEN Andrew
162430-----------
Flag United States
COLLINS Patrick
1723------------
Flag Canada
ST. JOHN Derrick
18-1722-17--915-2255-
Flag United States
BOUCHARD-HALL Kevin
19-------------
Flag United States
GIELAR Ian
20-------------
Flag United States
LANDRY Michael
21-------------
Flag United States
HORSLEY Bryan
2229------------
Flag United States
WOLD Travis
23-------------
Flag United States
CURTIS Zachary
242244-----------
Flag United States
MYERSON Adam
25DNF1923342428281417952234
Flag United States
RYAN Benjamin
26DNF------------
Flag United States
GRIFFO Gregg
27326155----------
Flag United States
AMENO Gennaro
2835------------
Flag United States
WENCZEL Kale
2919------------
Flag Canada
BELANGER BARRETTE Mathieu
30-------------
Flag United States
POWERS Jeremy
3131311112110-132-
Flag United States
NIESEN Christopher
3726------------
Flag United States
OWENS Matthew
393051-----------
Flag United States
SCOTT Andy
411020-----------
Flag United States
POWERS Ben
4628------------
Flag United States
LOGUE Clyde
4720------------
Flag United States
O'KEEFE Matthew
48------2418-14-43-
Flag United States
MYERS Scott
DNF27------------
Flag United States
LINDINE Justin
-8--99201182111-53-
Flag United States
SMITH Scott
-9141340---------
Flag United States
GOGUEN Peter
-1111-----------
Flag United States
O'KEEFE Sam
-1216282235--------
Flag United States
BEARD Cameron
-13------------
Flag United States
MCNICHOLAS Dylan
-146415--11121218----
Flag United States
GOGUELY Jules
-1624-62---------
Flag United States
MCCORMACK Brendan
-1812--54--------
Flag United States
RABADI Christopher
-25------------
Flag United States
BLACKBURN Trent
-3425-----------
Flag United States
SELANDER Bjorn
-38----------24-
Flag United States
FREYRE Eneas
-4426-------18---
Flag Canada
MCNEELY Evan
-47--2818161616-----
Flag United States
MORSE Nathaniel
-DNF29-----------
Flag United States
SUMMERHILL Daniel
--214-------23--
Flag United States
DURRIN Jeremy
--3-13222118------
Flag Canada
VAN DEN HAM Michael
--525-29--------
Flag United States
CRAIG Adam
--6-11-------42
Flag France
MARECAILLE Antonin
--8-----------
Flag United States
LIVERMON Travis
--91221-1922------
Flag United States
DECKER Carl
--10---------1410
Flag United States
CHABANOV Daniel
--15211534263023-----
Flag United States
ANTHONY Jesse
--1817-610191073486
Flag United States
MURPHY Evan
--23---73-------
Flag United States
ST. GERMAIN Adam
--28--2636---27---
Flag United States
HYDE Stephen
---378--------
Flag United States
TREBON Ryan
---5-52-3-1-1-
Flag Belgium
BERDEN Ben
---63444------
Flag Switzerland
WINTERBERG Lukas
---7510-15------
Flag United States
DODGE Cameron
---82331--------
Flag Canada
GAGNE Raphael
---10-11--------
Flag Great Britain
ROBINSON Hugo
---16----------
Flag Canada
MCCONNELL Mark
---18----------
Flag Australia
MILLBURN Garry
---19----------
Flag United States
MARION Robert
---202730-35------
Flag United States
HAIDET Lance
---26----------
Flag United States
KAISER Cody
---27----------
Flag United States
RYAN Alex
---29----------
Flag United States
TIMMERMAN Dan
---342-15--205-13-
Flag United States
KEOUGH Nicholas
---5830-2746--2540--
Flag Canada
GARRIGAN Mike
---6018253427-26-2949-
Flag United States
KRUGHOFF Allen
----621--------
Flag United States
JOHNSON Timothy
----102310242621
Flag United States
PAGE Jonathan
----12----1----
Flag United States
MILNE Shawn
----14---29---59-
Flag United States
WICKS Barry
----17-229----3-
Flag United States
WERNER Kerry
----19---------
Flag United States
FAVATA Christian
----2015243922242034--
Flag United States
GOGUEN Manny
----244425252434----
Flag United States
DILLON Joshua
----25--20-2224---
Flag United States
GAFFNEY Lewis
----26---------
Flag United States
JUILIANO Andrew
----29---------
Flag United States
TOWNSEND Jerome
----3327-421311-25--
Flag United States
MANNION Gavin
----45----23----
Flag United States
BURNS John
----616458-463522427850
Flag United States
BULL Edwin
----6423--------
Flag United States
ECKMANN Yannick
-----714-------
Flag Canada
RICHEY Craig
-----122313------
Flag United States
SCHOUTEN Tristan
-----131264----24
Flag Canada
MARTIN Jeremy
-----14--------
Flag United States
WELLS Troy
-----2041----15203
Flag United States
SAMPSON Thomas
-----2831-------
Flag Great Britain
FIELD Ian
------53------
Flag United States
MCDONALD Zach
------78------
Flag France
BAZIN Nicolas
------87------
Flag United States
MATTER Brian
------9------39
Flag United States
JONES Christopher
------13--3-344-
Flag United States
WHITE Bradley
------18-------
Flag United States
TONKIN Eric
------29-----174
Flag United States
BAHNSON Jeffrey
------3041------
Flag Denmark
PARBO Joachim
------4617-6----
Flag United States
MCCORMACK Mark
------48----10713
Flag United States
HAMBLEN Jonathan
------5447---2119-
Flag United States
HUSEBY Johannes
------63----173021
Flag Switzerland
HEULE Christian
-------1------
Flag United States
KEOUGH Luke
-------14288----
Flag Belgium
VAN NUFFEL Tim
-------21-9----
Flag Switzerland
MÜLLER Lukas
-------23------
Flag Canada
BATTY Mark
-------26------
Flag United States
LEECH Ryan
-------29----3120
Flag United States
DONAHUE Alec
-------31---14--
Flag United States
WULFKUHLE Andrew
-------36-25---63
Flag Canada
BAKKER Osmond
-------40-131016--
Flag United States
WONG Philip
-------581537----
Flag United States
BRADLEY Patrick
-------66-30----
Flag Italy
FRATTINI Davide
--------612-8--
Flag Switzerland
SCHERZ Valentin
--------7-----
Flag Italy
DAMIANI Luca
--------11-----
Flag United States
HACKWORTHY David
--------1716----
Flag Canada
LAMBERT-LEMAY Simon
--------19-----
Flag Canada
BUSSIERES Pascal
--------20-----
Flag Switzerland
GRAND Anthony
--------21-----
Flag United States
SNYDER Adam
--------25--3256-
Flag United States
WILICHOSKI Brian
--------26-----
Flag Canada
BOX Erik
--------27-----
Flag Canada
ADAMSON Shaun
--------30-----
Flag United States
WOLFSON Kevin
--------3643162763-
Flag United States
HANSON John
--------4044--6229
Flag United States
JACQUES-MAYNES Andy
---------56-9-
Flag United States
DUGAN William
---------14151846-
Flag United States
GILMOUR Ethan
---------19-33--
Flag Spain
MARTINEZ RUS Hugo
---------27----
Flag United States
SPINELLI Justin
---------288-28-
Flag United States
WARD Nathaniel
---------29-31--
Flag United States
VISINSKI Rickey
---------3317---
Flag United States
ANKNEY Mathew
---------4219---
Flag United States
WHITE Matthew
----------7712-
Flag United States
MARZOT Charles
----------12203762
Flag United States
GALLAGHER Michael
----------13-5412
Flag Canada
MACDONALD Warren
----------21---
Flag United States
KRAUS Matt
----------23242114
Flag United States
THOMPSON Eric
----------26---
Flag United States
WHEELDEN Todd
----------28---
Flag United States
SMITH Peter
----------29---
Flag United States
BELCHAK Jamie
----------3037--
Flag Germany
URBAN Malte
-----------2--
Flag United States
SHRIVER Matt
-----------9169
Flag Canada
REAIN Greg
-----------12--
Flag Canada
TOULOUSE Mathieu
-----------13632
Flag United States
NEYENS Daniel
-----------193335
Flag Canada
SIMARD Benoit
-----------268318
Flag United States
SOLAR Ward
-----------286159
Flag United States
WILSON Dan
-----------30--
Flag United States
JACQUES-MAYNES Ben
------------5-
Flag United States
WELLS Todd
------------10-
Flag United States
COLBY Anthony
------------11-
Flag United States
SUNDT Jonathan
------------18-
Flag United States
HORNER Christopher
------------23-
Flag United States
DWIGHT Brandon
------------2515
Flag United States
SKERRITT Shannon
------------268
Flag United States
BRADFORD-PARISH Kevin
------------27-
Flag United States
GILLESPIE Bart
------------29-
Flag United States
CAMERON Molly
------------4019
Flag United States
GRABOWSKI Zak
------------4728
Flag United States
ROBINSON Justin
------------5023
Flag United States
TAYLOR Noah
------------7322
Flag United States
KELLY Matt
-------------5
Flag Canada
WEDGE Peter
-------------7
Flag United States
JOHNSON Tyler
-------------11
Flag United States
OBYE Alan
-------------16
Flag United States
O'CONNOR Ryan
-------------25
Flag United States
MEYER Christian
-------------26
Flag United States
GOULET Ali
-------------27
Flag United States
HALL Mike
-------------30