21 November 2020
Hendersonville, NC, United States
 
19-20
C2
18-19
C2
17-18
C2
16-17
C2
15-16
C2
14-15
C2
13-14
C2
12-13
C2
11-12
C2
10-11
C2
09-10
C2
08-09
C2
07-08
C2
06-07
C2
Flag United States
WERNER Kerry
11145142------
Flag United States
THOMPSON Eric
243--612--5512--
Flag United States
LIVERMON Travis
394322--38481616
Flag Canada
CLARK Tyler
48------------
Flag United States
DAVIS Merwin
5568----------
Flag United States
GINIAT Andrew
61410-----------
Flag United States
JACK Rory
7-------------
Flag United States
BLACKBURN Trent
8DNF---34--------
Flag Canada
BARTON Malcolm
9-------------
Flag United States
BECKETT Carson
10-------------
Flag United States
PERLEY Bradford
111112--12112818231014--
Flag United States
GORRY Richard Cypress
12-14----16------
Flag United States
SHAW Walker
1312------------
Flag United States
MULLALY Keith
14-1614----------
Flag United States
MCGILL Scott
15--21----------
Flag United States
MARION Robert
1618-5981071210----
Flag United States
COLLINS Patrick
17-------------
Flag United States
DIETZ Andrew
1823------------
Flag United States
NIESEN Christopher
19-------------
Flag United States
LOUIS Rhys
20-------------
Flag United States
RICE Byron
21DNF1361219--------
Flag United States
LEWIS Simon
22-------------
Flag United States
VANWINKLE Nicholas
23-------------
Flag United States
BORNER Thomas
24-------------
Flag United States
BIRCH Derek
25-------------
Flag United States
SEITZ William
26-------------
Flag United States
THOMPSON Charles
27-20-----------
Flag United States
WHITE Jack
28-------------
Flag United States
MORSE Nathaniel
29---364021-------
Flag United States
RYAN Alex
DNF7119152923-322920212829
Flag United States
LIVERMON Lucas
DNF-22182430--201718--21
Flag United States
WILLSEY Cooper
-22216---------
Flag Canada
HOLMGREN Gunnar
-3------------
Flag United States
RHIM Brendan
-6---23--------
Flag United States
COWIE Tristan
-1051-1115-------
Flag United States
BARTON Nathan
-13------------
Flag United States
SMITH Scott
-15--1327--------
Flag Canada
DINIZ Nicholas
-16------------
Flag United States
SCHROEDER Allan
-17------------
Flag United States
BAUER Josh
-19------------
Flag United States
GIELAR Ian
-20------------
Flag United States
POTTER Michael
-21------------
Flag United States
JOHNSTON Spencer
-22------------
Flag Canada
MYSKO Paul
-24------------
Flag United States
JUNGE Frederick
-25------------
Flag United States
OKENFUSS Jon
-2619-----------
Flag United States
WALKER Jason
-27------------
Flag United States
DONAHUE Alec
-DNF--23-16-------
Flag United States
HYDE Stephen
-DNF----14-------
Flag United States
NEFF Isaac
--7-----------
Flag United States
SWARTZ Caleb
--8-----------
Flag United States
BICKMORE Cade
--9-----------
Flag United States
LANDRY Michael
--15-----------
Flag United States
KIEFFER Samuel
--17-----------
Flag United States
MYERS Scott
--18-----------
Flag United States
SPONSEL Alistair
--21-----------
Flag United States
HOUGH Charlie
--23-----------
Flag United States
HINDMAN Steve
--24-----------
Flag United States
NYSTROM Anders
--25-----------
Flag United States
TIMMERMAN Dan
---7-3-3------
Flag United States
REARDON Andrew
---102222272014192617--
Flag United States
HOUGH III Charles
---11----------
Flag United States
TRAVIESO Frank
---122592425-40----
Flag United States
SHEFTALL William
---1328---------
Flag United States
GAFFNEY Lewis
---152910201737-----
Flag United States
BASSETT Stephen
---16----------
Flag United States
HOFFNER Scott
---17----------
Flag United States
BARNES Will
---1938---------
Flag United States
VRAMBOUT Oliver
---20--26-------
Flag United States
REEVES Matthew
---2233---------
Flag New Zealand
WRIGHT Paul
---23----------
Flag United States
GOORSKEY Abe
---2434---------
Flag United States
KLINE Gavin
---25----------
Flag United States
SUMMERHILL Daniel
----1---------
Flag United States
MATTER Brian
----3-71213---
Flag United States
ECKMANN Yannick
----4-6-------
Flag United States
CLARK Anthony
----6513-------
Flag Canada
JETTE Cameron
----7---------
Flag United States
FREDERICK Ben
----84--------
Flag United States
SHORT Philip
----1015--------
Flag United States
WITTWER Greg
----11-181116--16-18
Flag United States
WOODALL Ryan
----14---------
Flag United States
MYERSON Adam
----17141769----8
Flag United States
WELLS Jake
----18-91033-65--
Flag United States
HILDEBRANDT Casey
----19---------
Flag United States
DILLMAN Andrew
----207-8------
Flag United States
VROUWENVELDER Luke
----21---------
Flag United States
WHITTIER Spencer
----26---------
Flag United States
KISSEBERTH Jack
----27---------
Flag United States
MEUCCI Alex
----30---------
Flag United States
RESEK Hunter
----3526--------
Flag United States
BRADFORD-PARISH Kevin
-----138-------
Flag United States
KELLEY Josh
-----16--------
Flag United States
RICHARDS Westley
-----172213------
Flag United States
SCHEMPF Weston
-----18--------
Flag United States
WELLS Troy
-----203-------
Flag United States
HAMBLEN Jonathan
-----21--7-13-23
Flag United States
WAITE Nick
-----24------9-
Flag United States
RIMMER Robert
-----25--------
Flag United States
HILL Brian
-----28--------
Flag United States
BAILEY Andrew
-----3129-25-----
Flag United States
BERGEY Gunnar
-----3225-------
Flag United States
WHITMORE Joshua
-----37---28--24-
Flag United States
POWERS Jeremy
------1-------
Flag United States
JOHNSON Timothy
------2-------
Flag United States
MCDONALD Zach
------5-------
Flag United States
TURNER Thomas
------19-11-----
Flag United States
WELSH Joseph
------28216-----
Flag United States
FORKNER David
------30-------
Flag United States
MOOSA Matt
------3223------
Flag United States
LARSEN Chris
------35--18----
Flag United States
LASLEY Jacob
-------4------
Flag United States
DICKENS Chase
-------5------
Flag United States
KERSTING Mitchell
-------9513----
Flag United States
SHEEDY Brian
-------12-16---17
Flag United States
NIETERS Jared
-------1421-----
Flag United States
BAKER Keck
-------15------
Flag United States
CUMMINGS Stephen
-------18------
Flag United States
BEESON Patrick
-------19------
Flag Canada
VAN DEN HAM Michael
-------22------
Flag United States
CRAWFORD Justin
-------2419-----
Flag United States
VITON Anthony
-------26------
Flag United States
STEVENS Josh
-------27293527-2525
Flag United States
CROUCH Michael
-------29------
Flag United States
UBERTI Christopher
-------30------
Flag United States
SCHOEFFLER Bryan
-------31--332829-
Flag Belgium
BERDEN Ben
--------1-----
Flag Canada
GARRIGAN Mike
--------4-----
Flag United States
KNAPP Ryan
--------839---
Flag United States
WOODRUFF Travis
--------10-----
Flag United States
MUEHL Eric
--------131515---
Flag United States
WARD Nathaniel
--------15-----
Flag United States
STORM Charlie
--------17---184
Flag United States
BAKER Andrew
--------223631---
Flag United States
WYATT Nathan
--------2327-2214-
Flag Canada
ADAMSON Shaun
--------24-----
Flag Norway
THORBERGSEN Sondre
--------26-----
Flag United States
HARSHMAN Shawn
--------27----14
Flag United States
NIWINSKI Noah
--------282511---
Flag United States
PFEIFER Nathan
--------30-----
Flag Italy
FRATTINI Davide
---------22---
Flag United States
LALONDE Mark
---------4----
Flag United States
FAWLEY Bryan
---------6----
Flag United States
FREDERICK Scott
---------723---
Flag United States
IDDINGS Ryan
---------9----
Flag United States
LEECH Ryan
---------111418--
Flag United States
METZLER Noah
---------1229---
Flag United States
BLACK Will
---------14-11--
Flag United States
WONDERGEM Eric
---------2017---
Flag United States
MOSHER Tim
---------21----
Flag United States
FYFE William
---------22----
Flag United States
SNEAD Josh
---------24----
Flag United States
STATMAN Katriel
---------26----
Flag United States
APPLEGATE Andy
---------30211389
Flag United States
CONSORTO Christopher
---------3325---
Flag United States
YEATER Davy
---------3719---
Flag United States
JAMESON Robert
---------4230---
Flag United States
SHRIVER Matt
----------1-6-
Flag United States
KRIEG Sam
----------7---
Flag United States
BERRY Grant
----------8---
Flag United States
LALONDE James
----------12---
Flag United States
MESSER Andrew
----------16---
Flag United States
SCHMITT Damian
----------22---
Flag United States
OAKES Aaron
----------24---
Flag United States
CROW John
----------28---
Flag United States
BRADFORD Aaron
----------322427-
Flag United States
BISHOP Jeremiah
-----------1--
Flag United States
STEVENSON Russell
-----------2--
Flag United States
BAKER Jonathan
-----------3--
Flag United States
GILLESPIE Bart
-----------4--
Flag United States
GALLAGHER Michael
-----------6--
Flag United States
TILFORD Steve
-----------74-
Flag United States
CLARK Oscar
-----------919-
Flag Canada
CHOWN Nathan
-----------10--
Flag United States
LLEWELLYN Andrew
-----------15--
Flag Canada
HINES Justin
-----------19--
Flag United States
JACKSON Scott
-----------202024
Flag United States
PETERSON Mitchell
-----------23--
Flag United States
LOUDER Stuart
-----------25--
Flag United States
GAIMON Phillip
-----------26--
Flag United States
ROTROFF Matt
-----------2722-
Flag United States
SPINELLI Justin
------------1-
Flag United States
CARRINGTON Taylor
------------37
Flag United States
SUNDT Jonathan
------------5-
Flag United States
FETTY Jacob
------------7-
Flag United States
BARRETT Tim
------------1019
Flag United States
JOHNSON Josh
------------1111
Flag United States
PENDRY Charles
------------126
Flag United States
SCHNEIDER James
------------13-
Flag United States
HYDE Evan
------------15-
Flag United States
RICE Nate
------------1712
Flag United States
DEGELE John
------------2123
Flag United States
HARPER Rich
------------23-
Flag United States
OISHI Andrew
------------26-
Flag United States
CODY Michael
-------------1
Flag United States
WHITE Matthew
-------------2
Flag United States
SCHOUTEN Tristan
-------------5
Flag United States
WYANDT David
-------------10
Flag United States
WEINERT Jeff
-------------13
Flag United States
WALKER Jeremy
-------------15
Flag United States
CARD Jonathan
-------------20
Flag United States
FOSHAG Robert
-------------22
Flag United States
ALTIZER Shawn
-------------26
Flag United States
LIMDMER Shey
-------------27
Flag United States
JUDY Chris
-------------28