UCI

UCI Taça do Mundo Ciclocrosse 2021-2022 - Elite Masculino

Calendário

#
Data
Corrida
Resultados
 
05-12-2021
Cancelado

Classificação Geral

# CorredorPontos#1#2#3#4#5#6#7#8#9#10#11#12#13#14#15
1
Bandeira Bélgica
ISERBYT Eli
485403040254030404022302117304040 
2
Bandeira Bélgica
VANTHOURENHOUT Michael
357302525203021-2230254022202522 
3
Bandeira Bélgica
AERTS Toon
3482022224025222530-202525213021 
4
Bandeira Bélgica
HERMANS Quinten
29925402121212522-2122222119-19 
5
Bandeira Países Baixos
VAN DER HAAR Lars
28122123030204021--21141625-30 
6
Bandeira Bélgica
SWEECK Laurens
223---2222203016-191919182216 
7
Bandeira Países Baixos
VAN KESSEL Corné
22016106181919202116181820-19- 
8
Bandeira Bélgica
VANDEBOSCH Toon
2191517141711915181716613161817 
9
Bandeira Bélgica
SOETE Daan
2121415191991418-1813208151515 
10
Bandeira Bélgica
BAESTAENS Vincent
20119-1611131819111517131417135 
11
Bandeira Reino Unido
PIDCOCK Tom
178--------2540301840-25 
12
Bandeira Suíça
KUHN Kevin
174137151361085191597142112 
13
Bandeira Alemanha
MEISEN Marcel
145811132312131712815123106 
14
Bandeira Bélgica
VANDEPUTTE Niels
14121195118-16202014--5-2 
15
Bandeira Bélgica
ADAMS Jens
128172020151011----5--2010 
16
Bandeira Países Baixos
KAMP Ryan
1241814181416-914----7-14 
17
Bandeira Bélgica
VAN AERT Wout
102--------40--4022-- 
18
Bandeira Bélgica
MEEUSEN Tom
102----8131119136---1418 
19
Bandeira Bélgica
VERSTRYNGE Emiel
76-169-14--12----12-13 
20
Bandeira Espanha
ORTS LLORET Felipe
75---85-315-128-1077 
21
Bandeira Países Baixos
HENDRIKX Mees
72---107-17--9--9-20 
22
Bandeira Bélgica
AERTS Thijs
71116124------1215-11- 
23
Bandeira Países Baixos
RONHAAR Pim
69721-16---25------- 
24
Bandeira França
DUBAU Joshua
54----12--8--17--17- 
25
Bandeira Bélgica
FERDINANDE Anton
5094176--14-------- 
26
Bandeira República Checa
BOROS Michael
50---12-853-51034-- 
27
Bandeira Reino Unido
MASON Cameron
47---917-10-----11-- 
28
Bandeira Suíça
RÜEGG Timon
46----2----316--169 
29
Bandeira Países Baixos
VAN DER POEL David
43-----1512--10-6--- 
30
Bandeira Reino Unido
TURNER Ben
43--------727118-8 
31
Bandeira Estados Unidos da Americá
HECHT Gage
3951811--------5--- 
32
Bandeira Reino Unido
MEIN Thomas
394133------411---4 
33
Bandeira Itália
BERTOLINI Gioele
36-----17-410-41--- 
34
Bandeira Estados Unidos da Americá
WHITE Curtis
343810------139--- 
35
Bandeira Países Baixos
VAN DER POEL Mathieu
30-----------30--- 
36
Bandeira França
VENTURINI Clément
29------------61211 
37
Bandeira Itália
DORIGONI Jakob
26-----16--9-1---- 
38
Bandeira Bélgica
MERLIER Tim
24---------11--13-- 
39
Bandeira Países Baixos
NIEUWENHUIS Joris
20---515---------- 
40
Bandeira Estados Unidos da Americá
WERNER Kerry
201217------------ 
41
Bandeira Bélgica
LOOCKX Lander
19------613------- 
42
Bandeira Itália
TONEATTI Davide
19109------------- 
43
Bandeira Bélgica
VERMEERSCH Gianni
17---------7-10--- 
44
Bandeira Bélgica
SWEECK Diether
16-----2--14------ 
45
Bandeira França
THOMAS Théo
14---3--27----2-- 
46
Bandeira Espanha
SUAREZ FERNANDEZ Kevin
13-----31------9- 
47
Bandeira França
MENUT David
13-----7-6------- 
48
Bandeira França
GUILLAUD Valentin
12----4--------8- 
49
Bandeira Itália
FONTANA Filippo
11--------11------ 
50
Bandeira Bélgica
MICHELS Jente
10-------10------- 
51
Bandeira Canadá
VAN DEN HAM Michael
102-8------------ 
52
Bandeira Estados Unidos da Americá
BRUNNER Eric
10154------------ 
53
Bandeira Suíça
ROUILLER Loris
9-------9------- 
54
Bandeira Estados Unidos da Americá
HAIDET Lance
9621------------ 
55
Bandeira Países Baixos
GODRIE Stan
9------4----41-- 
56
Bandeira Itália
COMINELLI Cristian
8--------8------ 
57
Bandeira França
PERIOU Tony
8-------2-----6- 
58
Bandeira França
GRAS Yan
8----1------2-5- 
59
Bandeira Bélgica
NYS Thibau
7------7-------- 
60
Bandeira Bélgica
MEEUSSEN Witse
7---7----------- 
61
Bandeira Itália
LEONE Samuele
6--------6------ 
62
Bandeira Polónia
KONWA Marek
6-----6--------- 
63
Bandeira França
HUBY Antoine
6-------15------ 
64
Bandeira Suíça
MOTTIEZ Gilles
6----------2--4- 
65
Bandeira República Checa
PAPRSTKA Tomas
5-----5--------- 
66
Bandeira Países Baixos
VAN DER MEER Gosse
5--2----------3- 
67
Bandeira Itália
SAMPARISI Nicolas
4--------4------ 
68
Bandeira República Checa
VANICEK Simon
4-----4--------- 
69
Bandeira Suíça
LILLO Dario
3--------------3 
70
Bandeira República Checa
PETRUS Lubomir
3--------3------ 
71
Bandeira Itália
MASCIARELLI Lorenzo
3-3------------- 
72
Bandeira França
TROPARDY Arthur
2-------------2- 
73
Bandeira Suíça
OPPIZZI Matteo
2--------2------ 
74
Bandeira Países Baixos
VAN LIEROP Danny
1--------------1 
75
Bandeira França
REMONDET Valentin
1-------------1- 
76
Bandeira Itália
FOLCARELLI Antonio
1--------1------ 
77
Bandeira Suíça
JEKER Hannes
1-----1--------- 

Videos

Mapa

Sistema de pontos

1. 40
2. 30
3. 25
4. 22
5. 21
6. 20
7. 19
8. 18
9. 17
10. 16
11. 15
12. 14
13. 13
14. 12
15. 11
16. 10
17. 9
18. 8
19. 7
20. 6
21. 5
22. 4
23. 3
24. 2
25. 1

Website