19-20
C2
18-19
C2
17-18
C2
16-17
C2
15-16
C2
14-15
C2
13-14
C2
12-13
C2
11-12
C2
10-11
C2
09-10
C2
08-09
C2
07-08
C2
06-07
C2
Bandeira Países Baixos
VAN DER POEL Mathieu
1---1---------
Bandeira Bélgica
VAN AERT Wout
2----1--------
Bandeira Bélgica
ADAMS Jens
3--6-85-------
Bandeira Bélgica
BOSMANS Wietse
4DNF11--4---9---
Bandeira Bélgica
ISERBYT Eli
5-14-----------
Bandeira Países Baixos
VAN DER POEL David
6-------------
Bandeira Espanha
ORTS LLORET Felipe
79------------
Bandeira Bélgica
VERMEERSCH Gianni
8-6--6--------
Bandeira Bélgica
BAESTAENS Vincent
98132-------29--
Bandeira Bélgica
CLEPPE Nicolas
1075--1516-------
Bandeira Bélgica
AERNOUTS Jim
11----------1312-
Bandeira Bélgica
LOOCKX Lander
12-917----------
Bandeira Estados Unidos da Americá
WERNER Kerry
1324------------
Bandeira Bélgica
GOEMAN Andreas
14-17-----------
Bandeira Bélgica
PEETERS Yannick
1510---9--------
Bandeira Bélgica
WYSEURE Joran
16-------------
Bandeira Bélgica
SIEBENS Gianni
171215-----------
Bandeira Bélgica
KUYPERS Gerben
18-------------
Bandeira Bélgica
BELLENS Jarno
1919------------
Bandeira Bélgica
LEMMENS Sander
20-------------
Bandeira Bélgica
VAN DEN BROECK Arno
21-------------
Bandeira Bélgica
VERMOOTE Jelle
22-------------
Bandeira Bélgica
UYTDEWILLIGEN Ingmar
2311--------27---
Bandeira França
REMONDET Valentin
24-------------
Bandeira Bélgica
ROMBOUTS Seppe
25-------------
Bandeira Bélgica
VANDEBOSCH Victor
26-23-----------
Bandeira Bélgica
VRACHTEN Arne
27-------------
Bandeira Bélgica
VANKEIRSBILCK Berne
2830--817--------
Bandeira Bélgica
WUYTS Mathijs
29-------------
Bandeira Bélgica
VLIEGEN Pieter-Jan
30-------------
Bandeira Bélgica
SWEECK Hendrik
3139181620---------
Bandeira Bélgica
GYS Jens
323322-----------
Bandeira Bélgica
VAN COMPERNOLLE Kenneth
3316DNFDNF171081167-210-
Bandeira Bélgica
JOSEPH Thomas
34--82114--------
Bandeira Bélgica
SMETS Gert
351832-----------
Bandeira Bélgica
DEJONGHE Len
3727------------
Bandeira Bélgica
ALDERWEIRELD Robin
412121333129--------
Bandeira Bélgica
TIELEN Dario
5129282127---------
Bandeira Bélgica
SWEECK Diether
DNF32183-38------
Bandeira Bélgica
VANTHOURENHOUT Dieter
DNF131210---4292-8-
Bandeira Bélgica
WILLEMYNS Mathieu
DNF3129-282633-------
Bandeira Bélgica
DE WIT Edwin
DNF32--41-3724------
Bandeira Bélgica
PAUWELS Kevin
-1------------
Bandeira Reino Unido
PIDCOCK Tom
-2------------
Bandeira Bélgica
MERLIER Tim
-4---311-------
Bandeira Alemanha
MEISEN Marcel
-510--------34--
Bandeira República Checa
BOROS Michael
-6-7----------
Bandeira Bélgica
MERLIER Braam
-1411DNF18---------
Bandeira Bélgica
BONNE Jenko
-15DNFDNF25---------
Bandeira Bélgica
LIESSENS Jarno
-17------------
Bandeira Bélgica
DEBEIR Arno
-20------------
Bandeira Países Baixos
BOOM Lars
-22------------
Bandeira Bélgica
DE SMET Thibaut
-23DNF-----------
Bandeira Bélgica
DEWULF Maxim
-25------------
Bandeira Bélgica
VERHEYEN Thomas
-26------------
Bandeira Bélgica
BEKAERT Yentl
-2830-----------
Bandeira Bélgica
VANDEVELDE Ruben
-3420312221--------
Bandeira Bélgica
KOYEN Niels
-3838--28--------
Bandeira Bélgica
VANTORNOUT Klaas
--3452---4----
Bandeira Bélgica
PEETERS Rob
--4-24-511----
Bandeira Bélgica
ADAMS Joeri
--756769------
Bandeira Bélgica
CALUWE Stijn
--81411---------
Bandeira Bélgica
DRIESEN Jarne
--1615----------
Bandeira Bélgica
DERVEAUX Niels
--1938----------
Bandeira Bélgica
ROELANDT Kenny
--24-34---------
Bandeira Países Baixos
VAN AMERONGEN Thijs
--25-9---------
Bandeira Bélgica
HOEYBERGHS Daan
--2620----------
Bandeira Bélgica
COLAERT Pascal
--27DNF36---------
Bandeira Bélgica
DEGROOTE Jonas
--311114-25-------
Bandeira Bélgica
DENOLF Ritchie
--3639----15-----
Bandeira Bélgica
VAN TICHELT Yorben
--DNF-1913--------
Bandeira Bélgica
VANTHOURENHOUT Michael
---3----------
Bandeira Bélgica
DENUWELAERE Jan
---9411---651--
Bandeira Bélgica
SWEECK Laurens
---12----------
Bandeira França
VENTURINI Clément
---13----------
Bandeira França
PRUVOT Nicolas
---19----------
Bandeira França
TRIGO Florian
---22----------
Bandeira Bélgica
HOFMAN Bart
---232620191910-----
Bandeira Bélgica
VENS Quincy
---24----------
Bandeira Bélgica
VAN ROOSBROECK Pieter
---25-27--------
Bandeira Bélgica
JASPERS Jappe
---26----------
Bandeira Bélgica
CANT Kevin
---2712182018-1516---
Bandeira Bélgica
BRAET Vinnie
---2810161217------
Bandeira Bélgica
DE SCHUYTER Tim
---2942-3529------
Bandeira Bélgica
VANDEKINDEREN Jens
---30---1412-----
Bandeira França
MARECAILLE Antonin
---3223-2323------
Bandeira Bélgica
NYS Sven
----7517431---
Bandeira Países Baixos
VAN LEEUWEN Patrick
----13---------
Bandeira Bélgica
VANTHOURENHOUT Sven
----15-733---21
Bandeira Bélgica
DE CLERCQ Angelo
----16---14-----
Bandeira Austrália
JONGEWAARD Chris
----24---------
Bandeira Bélgica
SCHUERMANS Jelle
----2922--------
Bandeira Bélgica
DE PROOST Kyle
----30---------
Bandeira Bélgica
DE WISPELAERE Bert
----33332626------
Bandeira Bélgica
VAN DEN BOSCH Tom
-----12----1024--
Bandeira Bélgica
BERDEN Ben
-----19--7-87411
Bandeira Bélgica
BRACKMAN Jelle
-----23--13-19---
Bandeira Bélgica
DE CLEYN Dave
-----24--------
Bandeira Polónia
GIL Mariusz
-----25216-12----
Bandeira Reino Unido
SPRAGG James
-----30--------
Bandeira Itália
BIANCO Marco
-----36---817---
Bandeira Bélgica
MEEUSEN Tom
------21---8--
Bandeira Bélgica
ALBERT Niels
------9-------
Bandeira República Checa
BINA Martin
------10-------
Bandeira Espanha
RUIZ DE LARRINAGA IBANEZ Javier
------13-------
Bandeira Bélgica
BODEN Stef
------14--161112--
Bandeira Espanha
LASTRA MARTINEZ Jonathan
------15-------
Bandeira Bélgica
HOFMAN Joeri
------17-------
Bandeira Estados Unidos da Americá
PAGE Jonathan
------18--5--55
Bandeira Bélgica
GHYLLEBERT Pieter
------2212------
Bandeira Bélgica
HUYS Stijn
------2421--15---
Bandeira Bélgica
EECKHOUT Kevin
------27--1118---
Bandeira Eslováquia
GAVENDA Robert
------28-------
Bandeira Eslováquia
HARING Martin
------29-------
Bandeira Bélgica
RONDELEZ Bjorn
------3030-23-251715
Bandeira Bélgica
LAPERE Kris
------3120-19212620-
Bandeira Suíça
TARAMARCAZ Julien
-------2------
Bandeira República Checa
ZLAMALIK Martin
-------10510--19-
Bandeira Bélgica
VAN GREMBERGEN Kendric
-------13---20--
Bandeira Alemanha
WALSLEBEN Philipp
-------15---5--
Bandeira Bélgica
COMMEYNE Davy
-------16----1612
Bandeira Bélgica
DENOLF Gianni
-------2216-25---
Bandeira Bélgica
DE KORT Tom
-------25------
Bandeira Bélgica
BAELEN Pedro
-------2718---119
Bandeira Espanha
BARBA FRUTOS Ismael Felix
-------28------
Bandeira Bélgica
VAN NUFFEL Tim
-------311717415144
Bandeira Estados Unidos da Americá
TREBON Ryan
--------8----14
Bandeira Bélgica
WELLENS Geert
--------918-6710
Bandeira Bélgica
MEURISSE Xandro
--------1114----
Bandeira Bélgica
PIROTTE Jo
--------19-----
Bandeira República Checa
STYBAR Zdenek
---------2----
Bandeira Bélgica
VAN DEN BRANDE Kay
---------1312---
Bandeira Bélgica
VERSCHUEREN Bart
---------20----
Bandeira Suécia
DARVELL Magnus
---------21----
Bandeira Bélgica
BEELEN Sven
---------22----
Bandeira Bélgica
GRUWIER Steve
---------2424352218
Bandeira Bélgica
WELLENS Bart
----------3-1-
Bandeira Bélgica
SOETENS Jan
----------643-
Bandeira Bélgica
VERSTRAETEN Jan
----------7366
Bandeira Bélgica
BERTHOLET Quentin
----------1323--
Bandeira Polónia
SZCZEPANIAK Pawel
----------14---
Bandeira Bélgica
PENNE Stijn
----------2018-13
Bandeira Bélgica
GOVAERTS Dries
----------22---
Bandeira Bélgica
PAUWELS Dries
----------23---
Bandeira Bélgica
LACROIX Dany
----------26---
Bandeira Mongólia
MYAGMARSUREN Baasankhuu
----------28---
Bandeira Mongólia
KHANGARID Naran
----------29---
Bandeira Mongólia
NARANBAT Ariunbold
----------30---
Bandeira Países Baixos
HUENDERS Mitchell
-----------9--
Bandeira Alemanha
WEBER Sascha
-----------10--
Bandeira Países Baixos
SINKELDAM Ramon
-----------11--
Bandeira Bélgica
BERCKMANS Nico
-----------149-
Bandeira Alemanha
VOSS Paul
-----------16--
Bandeira Reino Unido
FLETCHER David
-----------17--
Bandeira Países Baixos
VAN EMPEL Micki
-----------19--
Bandeira Bélgica
COENEN Davy
-----------21--
Bandeira Alemanha
PFINGSTEN Christoph
-----------22--
Bandeira Estados Unidos da Americá
SELANDER Bjorn
-----------27--
Bandeira Japão
TSUJIURA Keiichi
-----------28--
Bandeira Estados Unidos da Americá
POWERS Jeremy
-----------3018-
Bandeira Bélgica
WILLEMSENS David
------------133
Bandeira Bélgica
CLARYSSE Nico
------------1517
Bandeira Bélgica
JACOBS Wim
------------21-
Bandeira Noruega
VESTBY Martin
------------23-
Bandeira Bélgica
NAERT Jo
------------2421
Bandeira Bélgica
MIJNGHEER Johan
------------25-
Bandeira Bélgica
PONSEELE Valentijn
------------2622
Bandeira Canadá
BAKKER Osmond
------------27-
Bandeira Bélgica
CLAUW Tom
------------2826
Bandeira Bélgica
MYNGHEER Erik
------------2928
Bandeira Bélgica
BOECKX Jurgen
------------30-
Bandeira Itália
FRANZOI Enrico
-------------2
Bandeira Bélgica
DEBUSSCHERE Maxim
-------------7
Bandeira Bélgica
VAN SANTVLIET Peter
-------------8
Bandeira Bélgica
ROODHOOFT Christoph
-------------16
Bandeira Estados Unidos da Americá
TONKIN Eric
-------------19
Bandeira Bélgica
VANDEVIVERE Frederick
-------------20
Bandeira Zimbábue
ZENGENI Brian
-------------23
Bandeira Bélgica
DE GRUYTER Klaas
-------------24
Bandeira Zimbábue
CONWAY Mohamed
-------------25
Bandeira Zimbábue
TSABALALA Nquobizitha
-------------27