21-22
CJ
18-19
CJ
17-18
CJ
16-17
CJ
15-16
CJ
14-15
CJ
13-14
CJ
12-13
CJ
11-12
CJ
10-11
CJ
08-09
CJ
07-08
CJ
06-07
CJ
05-06
CJ
Bandeira Países Baixos
HAVERDINGS David
1-------------
Bandeira Bélgica
DOCKX Aaron
2-------------
Bandeira Países Baixos
JOCHEMS Jelte
3-------------
Bandeira Países Baixos
VAN DEN EIJNDEN Guus
4-------------
Bandeira Alemanha
KUSCHLA Silas
5-------------
Bandeira Bélgica
DHONDT Robbe
6-------------
Bandeira Países Baixos
BOUTEN Freek
7-------------
Bandeira Bélgica
URKENS Ferre
8-------------
Bandeira República Checa
JEZEK Vaclav
9-------------
Bandeira República Checa
SAMEC Filip
10-------------
Bandeira Bélgica
VAN DER HEYDEN Dario
11-------------
Bandeira Países Baixos
PRINS Jari
12-------------
Bandeira Países Baixos
VAN REES Christiaan
13-------------
Bandeira Bélgica
VAN DEN BERGH Toon
14-------------
Bandeira Países Baixos
KLIJN Nick
15-------------
Bandeira Bélgica
JANSSENS Willem
16-------------
Bandeira Bélgica
WOUTERS Jelle
17-------------
Bandeira Bélgica
PRESTAGE Sebastian
18-------------
Bandeira Bélgica
BAERT Brent
19-------------
Bandeira Bélgica
DOCKX Gilles
20-------------
Bandeira Alemanha
VAN DER VALK Lukas
21-------------
Bandeira Alemanha
VAN DER VALK Tom
22-------------
Bandeira Bélgica
VUYLSTEKE Tom
23-------------
Bandeira Alemanha
HARIG Tim
24-------------
Bandeira Países Baixos
VAN DER POEL Tim
25-------------
Bandeira Bélgica
VANHOOYDONCK Seppe
26-------------
Bandeira Bélgica
POLUS Jorben
27-------------
Bandeira Bélgica
DE CLERCQ Arne
28-------------
Bandeira Bélgica
VERSTRAETE Rune
29-------------
Bandeira Reino Unido
DJELIL Yani Angelo
30-------------
Bandeira Bélgica
NYS Thibau
-1------------
Bandeira Bélgica
CORTJENS Ryan
-29-----------
Bandeira Bélgica
MEEUSSEN Witse
-36-----------
Bandeira Bélgica
BELMANS Lennert
-4------------
Bandeira Alemanha
LINDNER Tom
-5------------
Bandeira Bélgica
HUYBS Ward
-6------------
Bandeira Países Baixos
VERBURG Luke
-711-----------
Bandeira Bélgica
VERVOORT Wout
-816-----------
Bandeira Bélgica
VAN LOOVEREN Joachim
-9DNF-----------
Bandeira Países Baixos
KARS Hugo
-10------------
Bandeira Bélgica
VERSTRYNGE Emiel
-11------------
Bandeira Bélgica
LECERF William Junior
-12------------
Bandeira Bélgica
BAERS Arne
-13------------
Bandeira Países Baixos
VAN DER DRIFT Twan
-14------------
Bandeira Bélgica
VAN TRICHT Floris
-15------------
Bandeira Bélgica
PEIRENS Yente
-1620-----------
Bandeira Bélgica
LAURYSSEN Yorben
-17------------
Bandeira Países Baixos
DELNOIJE Rémon
-18------------
Bandeira Bélgica
DE RIJCK Nando
-19------------
Bandeira Bélgica
DE LAET Tomas
-2027-----------
Bandeira Países Baixos
UPTEGROVE Pete
-21------------
Bandeira Bélgica
DE CLERCQ Seppe
-22------------
Bandeira Países Baixos
VAN DER VLEUTEN Lukas
-23------------
Bandeira Países Baixos
STORMS Miel
-24------------
Bandeira Países Baixos
TER LAAK Stef
-2526-----------
Bandeira Bélgica
MEEUSEN Ruben
-26------------
Bandeira Bélgica
JANSSEN Wout
-27------------
Bandeira Bélgica
DE VOS Wannes
-28------------
Bandeira Bélgica
VAN CUTSEM Senna
-2933-----------
Bandeira Bélgica
MARX Bram
-30------------
Bandeira Países Baixos
RONHAAR Pim
-DNF3-----------
Bandeira Países Baixos
KAMP Ryan
--13----------
Bandeira Bélgica
VANDEPUTTE Niels
--211----------
Bandeira República Checa
KOPECKY Tomás
--49----------
Bandeira Bélgica
GEYSELS Xander
--5-----------
Bandeira Bélgica
BELLENS Jarno
--716----------
Bandeira Bélgica
KUYPERS Gerben
--8-----------
Bandeira Países Baixos
HENDRIKX Mees
--10-----------
Bandeira Suíça
ROUILLER Loris
--12-----------
Bandeira Bélgica
FERDINANDE Anton
--13-----------
Bandeira Reino Unido
MASON Cameron
--14-----------
Bandeira Países Baixos
ARTZ Bart
--1512----------
Bandeira Bélgica
PEMEN Dolf
--1720----------
Bandeira Bélgica
VAN DEN BROECK Arno
--18-----------
Bandeira Bélgica
CLYNHENS Jens
--19-----------
Bandeira Bélgica
DE VET Sander
--2119----------
Bandeira Bélgica
HERRYGERS Tieme
--22-----------
Bandeira Bélgica
DE SMET Nicolas
--23-----------
Bandeira Bélgica
QUARTIER Jonas
--24-----------
Bandeira Bélgica
VAN COMPERNOLLE Jason
--2518----------
Bandeira Bélgica
CAS Stijn
--28-----------
Bandeira Bélgica
NOYENS Jarne
--29-----------
Bandeira Países Baixos
EHLERT Marco
--3027----------
Bandeira Bélgica
VERHEYDE Leander
--DNF30----------
Bandeira Bélgica
CAMPS Jelle
---1----------
Bandeira Países Baixos
ARENSMAN Thymen
---25---------
Bandeira Bélgica
VRACHTEN Arne
---418---------
Bandeira Bélgica
BEKAERT Yentl
---511---------
Bandeira Bélgica
VERMEERSCH Florian
---62---------
Bandeira Bélgica
VAN DEN EYNDE Vince
---7----------
Bandeira Bélgica
VANDEBOSCH Toon
---84---------
Bandeira Bélgica
THYS Joren
---10----------
Bandeira Países Baixos
AGTERBERG Kyle
---13----------
Bandeira Bélgica
VERDONCK Andres
---14----------
Bandeira Países Baixos
HAZEKAMP Bart
---15----------
Bandeira Países Baixos
VAN HELVOIRT Koen
---1721---------
Bandeira Países Baixos
LOOHUIS Lars
---21----------
Bandeira Bélgica
BEKAERT Seppe
---2223---------
Bandeira França
HOEZ Théo
---23----------
Bandeira Bélgica
CAREME Grégory
---24----------
Bandeira Países Baixos
MUGGLETON Luuk
---25----------
Bandeira Bélgica
PEETERS Cis
---26----------
Bandeira Bélgica
VLERICK Lars
---28----------
Bandeira Bélgica
VERDIJCK Lenn
---29----------
Bandeira Países Baixos
DEKKER Jens
----1---------
Bandeira Bélgica
ROMBOUTS Seppe
----311--------
Bandeira Bélgica
JASPERS Jappe
----6---------
Bandeira Bélgica
GOEMAN Andreas
----7---------
Bandeira Bélgica
LIESSENS Jarno
----88--------
Bandeira Países Baixos
WOLSINK Thijs
----94--------
Bandeira Países Baixos
GROOT Mitch
----10---------
Bandeira Bélgica
BAUTERS Reno
----12---------
Bandeira Bélgica
DRIESEN Jarne
----135--------
Bandeira Bélgica
VANDEBOSCH Victor
----147--------
Bandeira Bélgica
WUYTS Mathijs
----15---------
Bandeira Bélgica
TIELEMANS Jente
----16---------
Bandeira Bélgica
VAN GILS Maxim
----17---------
Bandeira Bélgica
VAN STAEYEN Maarten
----1917--------
Bandeira Bélgica
VERDONCK Loeka
----20---------
Bandeira Países Baixos
NIJKAMP Joery
----22---------
Bandeira Bélgica
BROECKX Seppe
----24---------
Bandeira Bélgica
SMITS Rune
----25---------
Bandeira Países Baixos
KALVENHAAR Stijn
----26---------
Bandeira Bélgica
VERMEERSCH Arne
----27---------
Bandeira Países Baixos
VAN UUM Lars
----28---------
Bandeira Bélgica
ISERBYT Eli
-----1--------
Bandeira Suíça
JACOBS Johan
-----22-------
Bandeira Países Baixos
GULICKX Max
-----3--------
Bandeira Países Baixos
VAN DER HEIJDEN Maik
-----618-------
Bandeira Bélgica
HERMANS Briek
-----9--------
Bandeira Bélgica
BONNE Jenko
-----10--------
Bandeira Bélgica
LOOCKX Lander
-----12--------
Bandeira Bélgica
DE CLERCQ Jari
-----13--------
Bandeira Bélgica
PAUWELS Tijl
-----14--------
Bandeira Bélgica
BREUGELMANS Michiel
-----1525-------
Bandeira Bélgica
PEMEN Diederik
-----16--------
Bandeira Países Baixos
VAN BENNEKOM Kevin
-----1819-------
Bandeira Países Baixos
MUSKENS Mart
-----19--------
Bandeira Bélgica
MAES Aïden
-----20--------
Bandeira Bélgica
COUCKUYT Laurens
-----21--------
Bandeira Bélgica
MORTIER Diede
-----22--------
Bandeira Bélgica
VANDAEL Roel
-----23--------
Bandeira Bélgica
HENDRICKX Niels
-----24--------
Bandeira Bélgica
HENDRICKX Stef
-----25--------
Bandeira Bélgica
JEURISSEN Sander
-----26--------
Bandeira Bélgica
PEETERS Yannick
------1-------
Bandeira Bélgica
AERTS Thijs
------33------
Bandeira Bélgica
VAN DONINK Gianni
------46------
Bandeira Bélgica
CALUWE Stijn
------58------
Bandeira Bélgica
JOSEPH Thomas
------617------
Bandeira Bélgica
VAN ROOSBROECK Pieter
------724------
Bandeira Bélgica
GOOSSENS Kobe
------87------
Bandeira Bélgica
JACOBS Sybren
------916------
Bandeira Países Baixos
BAKX Kelvin
------10-------
Bandeira Países Baixos
WOUTERS Sieben
------11-------
Bandeira Bélgica
DEVOS Han
------12-------
Bandeira Bélgica
VERHEYEN Nick
------13-------
Bandeira Bélgica
ANDRIES Jordi
------1423------
Bandeira Bélgica
VAN HECKE Elias
------1513------
Bandeira Bélgica
TEIRLINCK Jens
------1612------
Bandeira Bélgica
VAN DE VELDE Thomas
------17-------
Bandeira Bélgica
VERBRAKEN Jorn
------20-------
Bandeira Países Baixos
VAN DIJKE Koen
------2121------
Bandeira Bélgica
DE MEYER Senne
------22-------
Bandeira Países Baixos
BOUWMANS Dylan
------23-------
Bandeira Bélgica
VAN HASSELT Lennert
------24-------
Bandeira Países Baixos
VAN NOBELEN Jordi
------26-------
Bandeira Bélgica
SMETS Gert
------27-------
Bandeira Países Baixos
VAN DER POEL Mathieu
-------11-----
Bandeira Países Baixos
BUDDING Martijn
-------213-----
Bandeira Bélgica
BOETS Ben
-------416-----
Bandeira Bélgica
DEGROOTE Jonas
-------5------
Bandeira Bélgica
VAN LAER Ward
-------9------
Bandeira Países Baixos
JANSEN Richard
-------10------
Bandeira Bélgica
GORRENS Seppe
-------1118-----
Bandeira Bélgica
VANDEN DRIES Jelle
-------14------
Bandeira Países Baixos
NIEUWENHUIS Joris
-------15------
Bandeira Bélgica
VAN DEN BOSCH Brent
-------18------
Bandeira Bélgica
DE PROOST Kyle
-------1925-----
Bandeira Bélgica
POELVOORDE Arne
-------20------
Bandeira Bélgica
MERTENS Joran
-------2223-----
Bandeira Bélgica
QUINTELIER Gianni
-------25------
Bandeira Países Baixos
VERBERNE Yorick
-------26------
Bandeira Bélgica
JESPERS Lander
-------2730-----
Bandeira Bélgica
VAN AERT Wout
--------214----
Bandeira França
JAUREGUI Quentin
--------3-----
Bandeira Países Baixos
WEIJERS Koen
--------4-----
Bandeira Bélgica
VANKEIRSBILCK Berne
--------522----
Bandeira Bélgica
VAN DE VELDE Matthias
--------68----
Bandeira Países Baixos
ARIESEN Tim
--------7-----
Bandeira Bélgica
SOETE Daan
--------86----
Bandeira Bélgica
VAN TICHELT Yorben
--------99----
Bandeira Bélgica
HERMANS Quinten
--------10-----
Bandeira Países Baixos
VAN BEEK Pjotr
--------1116----
Bandeira Bélgica
CLEPPE Nicolas
--------12-----
Bandeira Bélgica
MERLIER Braam
--------14-----
Bandeira Bélgica
AMEEL Alexander
--------15-----
Bandeira França
POUILLY Felix
--------17-----
Bandeira Países Baixos
VAN DER HEIJDEN Bjorn
--------19-----
Bandeira Países Baixos
VAN BAKEL Robbie
--------20-----
Bandeira Bélgica
CALLAY Stig
--------21-----
Bandeira Alemanha
BRITZ Jakob
--------22-----
Bandeira Países Baixos
VAN ROOYEN Bryan
--------24-----
Bandeira Bélgica
COUCKUYT Jens
--------26-----
Bandeira Países Baixos
LAMMERTINK Mats
--------27-----
Bandeira Bélgica
VANDENBOSSCHE Quinten
--------28-----
Bandeira Bélgica
BOSMANS Tom
--------2934----
Bandeira Bélgica
SWEECK Diether
---------1----
Bandeira Bélgica
SWEECK Laurens
---------2----
Bandeira Países Baixos
VERBERNE Douwe
---------3----
Bandeira França
VENTURINI Clément
---------4----
Bandeira Bélgica
VANDEKINDEREN Jens
---------5----
Bandeira Bélgica
AERTS Toon
---------7----
Bandeira Países Baixos
DE MAN Jaap
---------10----
Bandeira Bélgica
VERSCHUEREN Timo
---------11----
Bandeira Bélgica
PEETERS Daniel
---------12----
Bandeira Bélgica
PANIS Maxim
---------13----
Bandeira Alemanha
LEHMANN Julian
---------15----
Bandeira Bélgica
VANDEKERCKHOVE Thibaut
---------17----
Bandeira Bélgica
PEPERMANS Lorenzo
---------18----
Bandeira Países Baixos
KRAMER Erik
---------19----
Bandeira Bélgica
GIELEN Stijn
---------20----
Bandeira Bélgica
SMETS Sibe
---------21----
Bandeira Bélgica
VAN DEN BRUEL Robin
---------23----
Bandeira Bélgica
DE SCHUYTER Tim
---------24----
Bandeira Letónia
NEILANDS Krists
---------25----
Bandeira Bélgica
BALLET Matthias
---------26----
Bandeira Bélgica
KOCKAERTS Jorne
---------27----
Bandeira Bélgica
VEROFT Jelto
---------28----
Bandeira Bélgica
SOETAERT Dimitri
---------29----
Bandeira Bélgica
JANSEGERS Jeffrey
---------30----
Bandeira Bélgica
BOSMANS Wietse
----------114--
Bandeira Países Baixos
EISING Tijmen
----------24--
Bandeira Países Baixos
VAN DER HEIJDEN Michiel
----------3---
Bandeira Bélgica
BRAET Vinnie
----------4---
Bandeira Países Baixos
VAN KESSEL Corné
----------517--
Bandeira Países Baixos
TEUNISSEN Mike
----------6---
Bandeira Países Baixos
VAN DER POEL David
----------7---
Bandeira Bélgica
VERMEERSCH Gianni
----------8---
Bandeira Bélgica
SWEECK Hendrik
----------9---
Bandeira Bélgica
KOYEN Niels
----------1025--
Bandeira Bélgica
MEURISSE Xandro
----------11---
Bandeira Bélgica
RISBOURG Raf
----------1236--
Bandeira Bélgica
ADAMS Jens
----------13---
Bandeira Bélgica
BAELEN Jesper
----------14---
Bandeira Países Baixos
LUGTEN Jelle
----------15---
Bandeira Bélgica
VAN DE VELDE Valentijn
----------1618--
Bandeira Bélgica
VEESTRAETEN Zeb
----------17---
Bandeira Bélgica
DE PROOST Rinze
----------18---
Bandeira Países Baixos
VAN BEUSEKOM Wilco
----------19---
Bandeira Bélgica
JOOSEN Jens
----------2038--
Bandeira Bélgica
CANT Jelle
----------21---
Bandeira Bélgica
MELLEMANS Jeffrey
----------22---
Bandeira Países Baixos
VAN DIJKE Nick
----------23---
Bandeira Bélgica
VAN OVERSTRAETEN Pieter-Jan
----------24---
Bandeira Bélgica
UYTDEWILLIGEN Ingmar
----------2542--
Bandeira Bélgica
WAGEMANS Andy
----------26---
Bandeira Bélgica
LA HAYE Rutger
----------2749--
Bandeira Bélgica
ALLARY Wim
----------28---
Bandeira Bélgica
VAN AKEN Mike
----------29---
Bandeira Bélgica
DE WINTER Thibeaut
----------30---
Bandeira Países Baixos
VAN DER HAAR Lars
----------DSQ5--
Bandeira França
JOUFFROY Arnaud
-----------1--
Bandeira Bélgica
DE BIE Sean
-----------2--
Bandeira Bélgica
BODEN Stef
-----------35-
Bandeira Países Baixos
VAN DER HORST Geert
-----------611-
Bandeira Bélgica
WILLEMS Zeb
-----------79-
Bandeira Países Baixos
VAN DER SANDEN Harm
-----------8--
Bandeira Bélgica
BEELEN Sven
-----------917-
Bandeira Países Baixos
OCKELOEN Jasper
-----------1018-
Bandeira Bélgica
BOSSUYT Matthias
-----------11--
Bandeira República Checa
PETRUS Lubomir
-----------12--
Bandeira Bélgica
DIELEMAN Michiel
-----------1323-
Bandeira Países Baixos
MEIJERS Daan
-----------15--
Bandeira Suíça
GRAND Arnaud
-----------16--
Bandeira Bélgica
VEESTRAETEN Ruben
-----------1916-
Bandeira Países Baixos
SLENTER Kaj
-----------20--
Bandeira Países Baixos
SMIT Kevin
-----------21--
Bandeira Suíça
WINTERBERG Michael
-----------22--
Bandeira Bélgica
GEETS Simon
-----------2321-
Bandeira Bélgica
BERVOETS Jonathan
-----------2436-
Bandeira Suíça
SCHERZ Valentin
-----------26--
Bandeira Bélgica
DENOLF Ritchie
-----------27--
Bandeira Países Baixos
KRAUWEL Bas
-----------28--
Bandeira Bélgica
MAES Kenny
-----------2930-
Bandeira Bélgica
GYSBRECHTS Thomas
-----------30--
Bandeira Países Baixos
BARKHUIS Bart
-----------3125-
Bandeira Bélgica
VAN HEMELEN Sam
-----------3427-
Bandeira Bélgica
BAESTAENS Vincent
------------19
Bandeira Países Baixos
SINKELDAM Ramon
------------27
Bandeira Bélgica
ADAMS Joeri
------------312
Bandeira Bélgica
COP Kristof
------------416
Bandeira Bélgica
AERNOUTS Jim
------------611
Bandeira Países Baixos
VAN DEN BRAND Twan
------------7-
Bandeira Alemanha
MEISEN Marcel
------------8-
Bandeira Bélgica
VERBOVEN Sven
------------10-
Bandeira Bélgica
EECKHOUT Kevin
------------12-
Bandeira Países Baixos
VAN DER VELDE Rob
------------1317
Bandeira Bélgica
DE PROOST Nick
------------14-
Bandeira Países Baixos
BEUKER Jordy
------------15-
Bandeira Bélgica
VERMEIREN Bert
------------19-
Bandeira Bélgica
VAN DE CASTEELE Jarno
------------20-
Bandeira Bélgica
SCHEIRS Kristof
------------22-
Bandeira Países Baixos
HEREIJGERS Kobus
------------24-
Bandeira Bélgica
STEVENS Dimitri
------------26-
Bandeira Países Baixos
VAN BEEM Tommy
------------28-
Bandeira Bélgica
ERTVELDT Julien
------------29-
Bandeira Países Baixos
VAN POPPEL Boy
-------------1
Bandeira Bélgica
CANT Kevin
-------------2
Bandeira Bélgica
MEEUSEN Tom
-------------3
Bandeira Bélgica
VANENDERT Dennis
-------------4
Bandeira Itália
COMINELLI Cristian
-------------5
Bandeira Bélgica
VAN COMPERNOLLE Kenneth
-------------6
Bandeira Bélgica
BRUYNDONCKX Bart
-------------8
Bandeira Bélgica
PAUWELS Dries
-------------10
Bandeira Bélgica
VAN ZEEBROECK Jan
-------------13
Bandeira Bélgica
WYDOOGHE Yannick
-------------14
Bandeira Bélgica
HERMANS Bart
-------------15
Bandeira Países Baixos
DEKKERS Jeroen
-------------18
Bandeira Bélgica
VERNAECKT Thomas
-------------19
Bandeira Bélgica
THIJS Wim
-------------20
Bandeira Países Baixos
ARTS Edwin
-------------21
Bandeira Bélgica
WOUTERS Bart
-------------22
Bandeira Países Baixos
VAN DER SANDEN Geert
-------------23
Bandeira Bélgica
PIZZY Kaëll
-------------24
Bandeira Bélgica
PLUYM Raf
-------------25
Bandeira Bélgica
BOSMANS Pieter
-------------26
Bandeira Bélgica
FRANCKAERT Gregory
-------------27
Bandeira Bélgica
DE CLEYN Dave
-------------28
Bandeira Bélgica
CLAUW Tom
-------------29
Bandeira Bélgica
DEBUSSCHERE Tim
-------------30