20-21
C1
19-20
C1
18-19
C1
17-18
C1
16-17
C1
14-15
C1
13-14
C1
12-13
C1
11-12
C1
10-11
C1
09-10
C1
08-09
C1
07-08
C1
06-07
C1
Bandeira Bélgica
SWEECK Laurens
145313---------
Bandeira Bélgica
VANTHOURENHOUT Michael
252107---------
Bandeira Países Baixos
VAN KESSEL Corné
315776146-------
Bandeira Bélgica
ISERBYT Eli
41120-----------
Bandeira Bélgica
HERMANS Quinten
529-----------
Bandeira Bélgica
AERTS Toon
6336----------
Bandeira Espanha
ORTS LLORET Felipe
7121219----------
Bandeira Países Baixos
VAN DER HAAR Lars
8745542-------
Bandeira Bélgica
VANDEPUTTE Niels
9-------------
Bandeira Bélgica
SOETE Daan
10811DNF17---------
Bandeira Bélgica
VANDEBOSCH Toon
11-------------
Bandeira Bélgica
ADAMS Jens
121015151412--------
Bandeira Reino Unido
MEIN Thomas
13-------------
Bandeira Países Baixos
VAN DER POEL David
14196211024--------
Bandeira Bélgica
BAESTAENS Vincent
15DNF24169629-9-----
Bandeira Bélgica
AERNOUTS Jim
1614101112-101113-----
Bandeira Bélgica
MEEUSEN Tom
17917931031617----
Bandeira Suíça
RÜEGG Timon
18-------------
Bandeira Bélgica
WYSEURE Joran
19-------------
Bandeira Bélgica
KIELICH Timo
20-------------
Bandeira Bélgica
VERSTRYNGE Emiel
21-------------
Bandeira Países Baixos
KAMP Ryan
22-------------
Bandeira Bélgica
BEKAERT Yentl
23-------------
Bandeira Bélgica
LOOCKX Lander
24-------------
Bandeira Suíça
KUHN Kevin
25-------------
Bandeira Bélgica
NYS Thibau
26-------------
Bandeira Suíça
ROUILLER Loris
27-------------
Bandeira Bélgica
HORNY Clément
28-------------
Bandeira França
JOT Hugo
29-------------
Bandeira Bélgica
UYTDEWILLIGEN Ingmar
30172122293740-------
Bandeira Espanha
SUAREZ FERNANDEZ Kevin
3520------------
Bandeira Bélgica
GYS Jens
4229333341-37-33-----
Bandeira Países Baixos
GODRIE Stan
DNF-25-----------
Bandeira Bélgica
VAN AERT Wout
-1-822--------
Bandeira Reino Unido
PIDCOCK Tom
-6------------
Bandeira Bélgica
AERTS Thijs
-1316-----------
Bandeira Bélgica
PEETERS Yannick
-16DNF-----------
Bandeira Bélgica
BOSMANS Wietse
-1827DNFDNF23--------
Bandeira Bélgica
MERLIER Braam
-21-1824---------
Bandeira Países Baixos
WOUTERS Sieben
-2223-----------
Bandeira Bélgica
CLEPPE Nicolas
-231813----------
Bandeira Estados Unidos da Americá
WHITE Curtis
-24------------
Bandeira Itália
DORIGONI Jakob
-25------------
Bandeira Estados Unidos da Americá
WERNER Kerry
-26302638---------
Bandeira Bélgica
SWEECK Hendrik
-27DNF24-34--------
Bandeira Bélgica
ALDERWEIRELD Robin
-2837-----------
Bandeira Bélgica
DE MEYER Senne
-3032-----------
Bandeira Países Baixos
VAN DER POEL Mathieu
--1111--------
Bandeira Países Baixos
NIEUWENHUIS Joris
--8-----------
Bandeira República Checa
BOROS Michael
--131723---------
Bandeira Bélgica
PAUWELS Kevin
--1444544313795
Bandeira Bélgica
VANTHOURENHOUT Dieter
--1914262188129868-
Bandeira Bélgica
SWEECK Diether
--22DNFDNF---------
Bandeira Países Baixos
VAN DIJKE Koen
--26-----------
Bandeira Bélgica
TIELEN Dario
--283231---------
Bandeira Espanha
ESTEBAN AGUANDO Ismael
--29DNF----------
Bandeira Bélgica
VAN COMPERNOLLE Kenneth
--3130-2822153512----
Bandeira Bélgica
MERLIER Tim
---2117--------
Bandeira Bélgica
VERMEERSCH Gianni
---12811--------
Bandeira Bélgica
HUYS Stijn
---202729323426242230--
Bandeira Bélgica
ADAMS Joeri
---232116-1918-----
Bandeira Bélgica
VERHEYEN Onno
---2532---------
Bandeira Espanha
RUIZ DE LARRINAGA IBANEZ Javier
---27302725-------
Bandeira Estados Unidos da Americá
ORTENBLAD Tobin
---28----------
Bandeira Bélgica
PEETERS Rob
---292018125221091411-
Bandeira Países Baixos
VAN LEEUWEN Patrick
---31223627202528212130-
Bandeira Alemanha
MEISEN Marcel
---DNF18816107-----
Bandeira Suíça
TARAMARCAZ Julien
----15-18-------
Bandeira Bélgica
VANTORNOUT Klaas
----1622-211613--8
Bandeira Alemanha
WALSLEBEN Philipp
----199237-2019---
Bandeira Bélgica
VANDEKINDEREN Jens
----25---------
Bandeira Bélgica
VAN TICHELT Yorben
----28---------
Bandeira Bélgica
CANT Kevin
----364031-2027----
Bandeira Espanha
HERNANDEZ GUTIERREZ Aitor
----394226-------
Bandeira Polónia
GIL Mariusz
----DNF2624213125-2327-
Bandeira Bélgica
DE CLEYN Dave
----DNF3530293832----
Bandeira Bélgica
DENUWELAERE Jan
----DNF--131511----
Bandeira Bélgica
NYS Sven
-----313431231
Bandeira Países Baixos
VAN DEN BRAND Twan
-----13172616-----
Bandeira Bélgica
VANTHOURENHOUT Sven
-----151112885546
Bandeira Bélgica
WELLENS Bart
-----17-6-5732-
Bandeira República Checa
BINA Martin
-----191323------
Bandeira Países Baixos
BOSMAN Gert-Jan
-----20--------
Bandeira Países Baixos
WUBBEN Niels
-----252032------
Bandeira Bélgica
BRAET Vinnie
-----30--------
Bandeira República Checa
SIMUNEK Radomir
-----317DNF6-11-1814
Bandeira Bélgica
GAUDY Patrick
-----33332724-----
Bandeira Bélgica
VAN DEN BOSCH Tom
-----39-3623-171823-
Bandeira Bélgica
ALBERT Niels
------51544114
Bandeira Bélgica
AERNOUTS Bart
------9921-6131010
Bandeira Países Baixos
VAN IJZENDOORN Eddy
------14-391620---
Bandeira Países Baixos
VAN AMERONGEN Thijs
------151717211419--
Bandeira Estados Unidos da Americá
POWERS Jeremy
------19-------
Bandeira Países Baixos
AL Thijs
------2114141315101211
Bandeira Estados Unidos da Americá
PAGE Jonathan
------28283414----
Bandeira Países Baixos
VAN EMPEL Micki
------3425------
Bandeira Bélgica
VERSCHUEREN Bart
------38-293036---
Bandeira Países Baixos
DE KNEGT Gerben
-------1819181012173
Bandeira Suíça
ZAHNER Simon
-------22------
Bandeira República Checa
ZLAMALIK Martin
-------24-3525---
Bandeira Bélgica
HOFMAN Bart
-------303040----
Bandeira Bélgica
DENOLF Gianni
-------35322929---
Bandeira Bélgica
DE KORT Tom
-------37--34292827
Bandeira República Checa
STYBAR Zdenek
--------222459
Bandeira França
MOUREY Francis
--------1022--16-
Bandeira Estados Unidos da Americá
TREBON Ryan
--------27----30
Bandeira Bélgica
DE DECKER Steven
--------2836----
Bandeira Bélgica
BERDEN Ben
--------361526151420
Bandeira Bélgica
VAN NUFFEL Tim
--------4033302726-
Bandeira Bélgica
RAEYMAKERS Sten
--------42-31283228
Bandeira Itália
BIANCO Marco
--------4317-1113-
Bandeira República Checa
DLASK Petr
---------19-20247
Bandeira Eslováquia
GAVENDA Robert
---------23----
Bandeira Suíça
HEULE Christian
---------26241719-
Bandeira Bélgica
THIELEMANS Mike
---------34-26-36
Bandeira Bélgica
TIELENS Jimmy
---------3823-2224
Bandeira Países Baixos
VAN GILS Wilant
---------3916--12
Bandeira Itália
FRANZOI Enrico
----------12---
Bandeira Bélgica
VERSTRAETEN Jan
----------18161518
Bandeira Bélgica
VERVECKEN Erwin
----------279715
Bandeira Bélgica
BERTHOLET Quentin
----------28---
Bandeira Bélgica
SOETENS Jan
----------3522--
Bandeira Países Baixos
GROENENDAAL Richard
-----------862
Bandeira Suécia
DARVELL Magnus
-----------24--
Bandeira Bélgica
RONDELEZ Bjorn
-----------25--
Bandeira Bélgica
BERCKMANS Nico
-----------3125-
Bandeira Bélgica
DAELMANS Arne
------------2017
Bandeira Bélgica
WILLEMSENS David
------------2113
Bandeira Bélgica
CLARYSSE Nico
------------2932
Bandeira Países Baixos
NIJLAND Maarten
-------------16
Bandeira Países Baixos
BOOM Lars
-------------19
Bandeira Bélgica
VAN SANTVLIET Peter
-------------21
Bandeira Bélgica
VANNOPPEN Tom
-------------22
Bandeira República Checa
AUSBUHER Kamil
-------------23
Bandeira Bélgica
VAN DER VEKEN Jorn
-------------25
Bandeira Bélgica
JACOBS Wim
-------------26
Bandeira Bélgica
ROODHOOFT Christoph
-------------29