19-20
CJ
18-19
CJ
17-18
CJ
16-17
CJ
15-16
CJ
14-15
CJ
13-14
CJ
12-13
CJ
11-12
CJ
10-11
CJ
09-10
CJ
08-09
CJ
Bandeira Bélgica
BAERS Arne
12----------
Bandeira Bélgica
VANDERLINDEN Lukas
2-----------
Bandeira Alemanha
NEFFGEN Tim
3-----------
Bandeira Luxemburgo
WALLENBORN Arno
4-----------
Bandeira Luxemburgo
WENZEL Mats
511----------
Bandeira Luxemburgo
PAQUET Tom
69----------
Bandeira Bélgica
AVONDTS Mathis
7-----------
Bandeira Luxemburgo
URY Noé
8-----------
Bandeira França
GABRIEL Timothé
9-----------
Bandeira Luxemburgo
KESS Alexandre
10-----------
Bandeira Luxemburgo
SCHMITZ Jo
11-----------
Bandeira Bélgica
RAUSCH Geoffrey
12-----------
Bandeira Luxemburgo
LAMESCH Mika
13-----------
Bandeira Luxemburgo
POL Breser
14-----------
Bandeira Alemanha
KALWEIT Luca
15-----------
Bandeira Bélgica
LAURYSSEN Yorben
-1----------
Bandeira Luxemburgo
BETTENDORFF Loic
-35---------
Bandeira Bélgica
LECERF William Junior
-4----------
Bandeira Bélgica
VERVOORT Wout
-53---------
Bandeira Bélgica
DE SMET Nicolas
-6----------
Bandeira Luxemburgo
ESSER Mik
-78---------
Bandeira Luxemburgo
BLATT Pablo
-8----------
Bandeira Países Baixos
VAN DER DRIFT Twan
-10----------
Bandeira Luxemburgo
GLOESENER Jacques
-1210---------
Bandeira Países Baixos
STORMS Miel
-13----------
Bandeira Luxemburgo
BRAUN Luc
-1411---------
Bandeira Luxemburgo
HERMES Tom
-15DNF---------
Bandeira Luxemburgo
KLUCKERS Arthur
--111--------
Bandeira Luxemburgo
KESS Nicolas
--26--------
Bandeira Bélgica
DEJONGHE Len
--4---------
Bandeira Luxemburgo
LEYDER Jang
--6---------
Bandeira Luxemburgo
PRIES Cédric
--75--------
Bandeira Bélgica
HORNY Clément
--9---------
Bandeira Luxemburgo
NEDERVEEN Steven
--12---------
Bandeira República Checa
KOPECKY Tomás
---1--------
Bandeira Luxemburgo
CONTER Ken
---25-------
Bandeira Luxemburgo
SCHREIBER Félix
---32-------
Bandeira Luxemburgo
LEYDER Misch
---44-------
Bandeira Bélgica
VAN DEN PLAS Jasper
---7--------
Bandeira Países Baixos
VAN HELVOIRT Koen
---8--------
Bandeira Bélgica
BRAES Brent
---96-------
Bandeira Bélgica
PEMEN Dolf
---10--------
Bandeira Luxemburgo
BINDELS James
---129-------
Bandeira França
GIRARD Anthony
---13--------
Bandeira Luxemburgo
LECLERC Philippe
---14--------
Bandeira Luxemburgo
NOTHUM Pol
---15--------
Bandeira Alemanha
NEUMANN Andre
---16--------
Bandeira Luxemburgo
HUBERT Scott
---17--------
Bandeira Luxemburgo
RIES Michel
----12------
Bandeira Luxemburgo
FRIES Noah
----34------
Bandeira Bélgica
TIBACKX Lander
----7-------
Bandeira Luxemburgo
WEIS Luc
----812------
Bandeira Luxemburgo
THILL Maurice
----10-------
Bandeira Luxemburgo
GENIETS Kevin
-----14-----
Bandeira Bélgica
VANDEBOSCH Victor
-----3------
Bandeira Luxemburgo
LEYDER Pit
-----5------
Bandeira Luxemburgo
HEIDERSCHEID Colin
-----6------
Bandeira República Checa
MAYER Daniel
-----7------
Bandeira Luxemburgo
REES Tom
-----8------
Bandeira República Checa
KUNT Lukas
-----96-----
Bandeira Luxemburgo
DA SILVA Tiago
-----1014-----
Bandeira Luxemburgo
GODART Cédric
-----1113-----
Bandeira França
GRAS Yan
------1-----
Bandeira França
HAVOT Sébastien
------2-----
Bandeira Bélgica
HENNAUX Loïc
------3-----
Bandeira Eslováquia
BELLAN Juraj
------5-----
Bandeira França
FERRY Théo
------7-----
Bandeira Bélgica
CROLLET Yari
------8-----
Bandeira Macedonia
PETROVSKI Andrej
------9-----
Bandeira Eslováquia
ULIK Matej
------10-----
Bandeira Luxemburgo
MUELLER Ken
------117----
Bandeira Luxemburgo
WENGLER Joé
------12-----
Bandeira Luxemburgo
WIRTZ Joe
------15-----
Bandeira Luxemburgo
DRINKWATER Charles
------16-----
Bandeira Luxemburgo
MATHAY Dylan
------17-----
Bandeira Bélgica
VAN DONINK Gianni
-------1----
Bandeira Bélgica
CALUWE Stijn
-------2----
Bandeira Bélgica
VAN LAER Ward
-------3----
Bandeira Bélgica
TEIRLINCK Jens
-------4----
Bandeira Bélgica
SCHUERMANS Jelle
-------5----
Bandeira Bélgica
GORRENS Seppe
-------6----
Bandeira Luxemburgo
TURCHI Luc
-------86---
Bandeira Luxemburgo
SCHNEIDER Laurent
-------9----
Bandeira Luxemburgo
BORMANN Olivier
-------1011---
Bandeira Luxemburgo
VALVASORI Larry
-------11----
Bandeira Bélgica
HERMANS Quinten
--------1---
Bandeira Bélgica
VAN DEN DRIESSCHE Din
--------2---
Bandeira Luxemburgo
FRITSCH Sven
--------37--
Bandeira Bélgica
MERTZ Remy
--------4---
Bandeira Luxemburgo
KLEIN David
--------5---
Bandeira Luxemburgo
REDLINGER Steve
--------7---
Bandeira Bélgica
BRUTSAERT David
--------8---
Bandeira Alemanha
EHLERS Christopher
--------9---
Bandeira Luxemburgo
LANG Alec
--------1017--
Bandeira Alemanha
HAAS Leonard
--------12---
Bandeira Bélgica
PANIS Maxim
---------15-
Bandeira Países Baixos
BRUSSELMAN Twan
---------2--
Bandeira Bélgica
MERTZ Nicolas
---------3--
Bandeira Bélgica
VAN DEN DRIESSCHE Niels
---------46-
Bandeira Luxemburgo
MORABITO Massimo
---------512-
Bandeira Luxemburgo
SCHWARMES Tom
---------611-
Bandeira Luxemburgo
REINERT Jimmy
---------8--
Bandeira Luxemburgo
GLEIS Ralph
---------913-
Bandeira Luxemburgo
MORES Antoine
---------10--
Bandeira Luxemburgo
KRUX Ben
---------11--
Bandeira Luxemburgo
THEIS Rick
---------12--
Bandeira Luxemburgo
HEYMES Gilles
---------13--
Bandeira Luxemburgo
LEONI Andrea
---------14--
Bandeira Luxemburgo
BENTZ Metty
---------15--
Bandeira Luxemburgo
WEBER Pit
---------16--
Bandeira Luxemburgo
FLESCH Pol
---------1816-
Bandeira República Checa
POLNICKY Radek
----------1-
Bandeira República Checa
BOROS Michael
----------2-
Bandeira Bélgica
HOFMAN Joeri
----------3-
Bandeira Países Baixos
MEIJERS Jeroen
----------4-
Bandeira República Checa
MEDEK Tomas
----------7-
Bandeira Bélgica
CLAES Jorn
----------8-
Bandeira Bélgica
HEYSE Stijn
----------9-
Bandeira República Checa
ZNIVA Ondrej
----------10-
Bandeira Luxemburgo
MORO Kevin
----------14-
Bandeira Luxemburgo
DELLA SCHIAVA Richard
----------15-
Bandeira Luxemburgo
JUNGELS Bob
-----------1
Bandeira República Checa
PAPRSTKA Tomas
-----------2
Bandeira Luxemburgo
KIRSCH Alex
-----------3
Bandeira República Checa
VESELY Daniel
-----------4
Bandeira Polónia
HORYZA Daniel
-----------5
Bandeira Luxemburgo
KLEMANN Nicolas
-----------6
Bandeira Luxemburgo
FANCK Christophe
-----------7
Bandeira República Checa
REHAK Martin
-----------8
Bandeira Luxemburgo
GANGOLF Joel
-----------9
Bandeira Bélgica
BRAEM Thibault
-----------10