19-20
CN
18-19
CN
17-18
CN
16-17
CN
15-16
CN
14-15
CN
13-14
CN
12-13
CN
11-12
CN
10-11
CN
09-10
CN
08-09
CN
07-08
CN
06-07
CN
Vlag Nederland
KAMP Ryan
11------------
Vlag Nederland
HENDRIKX Mees
26------------
Vlag Nederland
RONHAAR Pim
3-------------
Vlag Nederland
ARTZ Bart
47------------
Vlag Nederland
VERBURG Luke
5-------------
Vlag Nederland
VAN DIJKE Tim
65------------
Vlag Nederland
VAN DIJKE Mick
7-------------
Vlag Nederland
VREESWIJK Noah
8-------------
Vlag Nederland
VAN HELVOIRT Koen
9915-----------
Vlag Nederland
GELEIJN Owen
10-------------
Vlag Nederland
BOVEN Lars
11-------------
Vlag Nederland
NOORDAM Marino
12-------------
Vlag Nederland
AGTERBERG Kyle
1339-----------
Vlag Nederland
UPTEGROVE Pete
14-------------
Vlag Nederland
VAN DER PEET Yoep
1515------------
Vlag Nederland
EHLERT Marco
1612------------
Vlag Nederland
DE VRIES Joppe
17-------------
Vlag Nederland
VAN GESTEL Mika
1813------------
Vlag Nederland
VAN UUM Lars
19-------------
Vlag Nederland
TER LAAK Stef
20-------------
Vlag Nederland
SEELEN Jurgen
2116------------
Vlag Nederland
DELNOIJE Rémon
22-------------
Vlag Nederland
VAN DER LEE Jardi Christiaan
23-------------
Vlag Nederland
VERBRUGGEN Niels
24111424----------
Vlag Nederland
DAMIAANS Wesley
25-------------
Vlag Nederland
VAN MEER Erben
26-------------
Vlag Nederland
KLEIN NIENHUIS Bart
27-------------
Vlag Nederland
HEBING Demiz
28-------------
Vlag Nederland
BROUWER Dennis
29-------------
Vlag Nederland
VAN DER STEGEN Roel
-261315---------
Vlag Nederland
VAN DER HEIJDEN Maik
-4825---------
Vlag Nederland
MUSKENS Mart
-871721---------
Vlag Nederland
MIJNTEN Martin
-10182023---------
Vlag Nederland
GEURTS Kyro
-1421-----------
Vlag Nederland
DE NIJS Maarten
-17------------
Vlag Nederland
RUNHAAR Marvin
-18232835---------
Vlag Nederland
VAN DEN BERGHEN Lars
-DNF16-----------
Vlag Nederland
SCHREUDER Carlos
-DNF172331---------
Vlag Nederland
NIEUWENHUIS Joris
--1142--------
Vlag Nederland
BAKX Kelvin
--24711--------
Vlag Nederland
ARENSMAN Thymen
--3-----------
Vlag Nederland
DEKKER Jens
--4-----------
Vlag Nederland
WOUTERS Sieben
--5313--------
Vlag Nederland
VAN DIJKE Koen
--1010814--------
Vlag Nederland
BOER Erik
--11-22---------
Vlag Nederland
JANSSEN Tim
--12141813--------
Vlag Nederland
NORDEMANN David
--13-19---------
Vlag Nederland
VAN BENNEKOM Kevin
--192126---------
Vlag Nederland
MASTEBROEK Lars
--20-----------
Vlag Nederland
WITHAG Jeldert
--22-----------
Vlag Nederland
VADER Milan
---5107--------
Vlag Nederland
VAN DER MEER Gosse
---63611-------
Vlag Nederland
VAN DER HEIJDEN Bjorn
---79912-------
Vlag Nederland
FLOREN Wesley
---812---------
Vlag Nederland
JANSEN Richard
---96410-------
Vlag Nederland
BOUWMANS Dylan
---1111---------
Vlag Nederland
BOUWMEESTER Marc
---12----------
Vlag Nederland
VRIELINK Yannick
---15----------
Vlag Nederland
BOUWMANS Bryan
---16----------
Vlag Nederland
DEKKER David
---18----------
Vlag Nederland
WIJKEL Stan
---1916---------
Vlag Nederland
POLDERVAART Mario
---22----------
Vlag Nederland
PENNINGS Bart
---2525---------
Vlag Nederland
KOOL Thijs
---2628---------
Vlag Nederland
TALEN Jordi
---27----------
Vlag Nederland
PUTMAN Tim
---29----------
Vlag Nederland
BUDDING Martijn
----256-------
Vlag Nederland
WEIJERS Koen
----13-910------
Vlag Nederland
ARIESEN Tim
----14-89------
Vlag Nederland
VAN BROEKHOVEN Rob
----17---------
Vlag Nederland
WIGGERS Per
----20---------
Vlag Nederland
VAN DEN BOS Perry
----24---------
Vlag Nederland
BURGER Sven
----27---------
Vlag Nederland
KRAMER Erik
----29---------
Vlag Nederland
OUDE ELFERINK Tommy
----3019--------
Vlag Nederland
GODRIE Stan
-----1583-----
Vlag Nederland
MEIJERS Jeroen
-----8-1319-----
Vlag Nederland
GIESKENS Nicky
-----101420------
Vlag Nederland
DE MAN Jaap
-----12-11------
Vlag Nederland
SCHOLTEN Wiebe
-----15--------
Vlag Nederland
LENDERINK Peter
-----16--------
Vlag Nederland
KIP Vincent
-----17--------
Vlag Nederland
VAN DER STELT Sjoerd
-----18--------
Vlag Nederland
VEGTER Jeroen
-----20--------
Vlag Nederland
VAN DER POEL Mathieu
------1-------
Vlag Nederland
VAN DER POEL David
------2127----
Vlag Nederland
TEUNISSEN Mike
------33102----
Vlag Nederland
VAN DER HEIJDEN Michiel
------4544----
Vlag Nederland
BOSMAN Gert-Jan
------74-3----
Vlag Nederland
VAN BAKEL Robbie
------1312------
Vlag Nederland
VERHOEVEN Mike
------1519------
Vlag Nederland
EIKELENBOOM Dennis
------161720-----
Vlag Nederland
GROENEWEGEN Dylan
------17-------
Vlag Nederland
SCHOUTEN Daan
------1818------
Vlag Nederland
VAN BEEK Pjotr
------1914------
Vlag Nederland
VAN DE SWALUW Pim
------20-------
Vlag Nederland
VAN DE KRUISWEG Raymond
------21-------
Vlag Nederland
LAMMERTINK Mats
------22-------
Vlag Nederland
HARTEMINK Ewoud
------23-------
Vlag Nederland
SPIER Rafaël
------24-------
Vlag Nederland
VAN KESSEL Corné
-------26141---
Vlag Nederland
DOLFSMA Emiel
-------6511----
Vlag Nederland
EISING Tijmen
-------7-94---
Vlag Nederland
VAN DE VEN Koen
-------15------
Vlag Nederland
VAN DIJKE Nick
-------162223----
Vlag Nederland
TEN HOVE Erjan
-------21------
Vlag Nederland
VAN OPDORP Bart
-------22------
Vlag Nederland
CASTEL Mike
-------23------
Vlag Nederland
SLENTER Juul
-------24------
Vlag Nederland
VAN DER HAAR Lars
--------117---
Vlag Nederland
MOORLAG Henk Jaap
--------7-12---
Vlag Nederland
HOFLAND Moreno
--------81714---
Vlag Nederland
VAN EMPEL Micki
--------9652--
Vlag Nederland
LAMMERTINK Maurits
--------1113176--
Vlag Nederland
OCKELOEN Jasper
--------12-137--
Vlag Nederland
VERBERNE Douwe
--------13-----
Vlag Nederland
SLENTER Kaj
--------14-1810--
Vlag Nederland
BARKHUIS Bart
--------152025---
Vlag Nederland
VAN DER MAREL Pim
--------16-----
Vlag Nederland
VAN DER SANDEN Harm
--------17162026--
Vlag Nederland
SCHELLEVIS Rutger
--------18192124--
Vlag Nederland
VAN DER HEIJDEN Rob
--------212123---
Vlag Nederland
SCHUURMANS Paul
--------23-----
Vlag Nederland
DE ROO Jacob
--------24-----
Vlag Nederland
VAN GENNIP Joep
--------25-----
Vlag Nederland
HOFLAND Fausto
--------26-----
Vlag Nederland
DEKKER Axel
--------27-----
Vlag Nederland
VAN DER MAREL Jelle
--------28-----
Vlag Nederland
METSELAAR Jan
--------29-----
Vlag Nederland
VAN DEN BRAND Twan
---------56186-
Vlag Nederland
HEREIJGERS Kobus
---------811414-
Vlag Nederland
VAN KOOIJ Nils
---------101919--
Vlag Nederland
VAN DER HORST Geert
---------12105--
Vlag Nederland
SINKELDAM Ramon
---------15234-
Vlag Nederland
MINNAARD Marco
---------18-12--
Vlag Nederland
VEENSTRA Allan
---------22----
Vlag Nederland
LOMMERS Marcel
---------2433---
Vlag Nederland
VINK Jeffrey
---------25----
Vlag Nederland
ROELOFS Robin
---------2629---
Vlag Nederland
GERRITSE Ferdi
---------27-3126-
Vlag Nederland
KOOT Christian
---------28----
Vlag Nederland
HUENDERS Mitchell
----------39311
Vlag Nederland
VAN POPPEL Boy
----------8113
Vlag Nederland
SMIT Kevin
----------928--
Vlag Nederland
ARTS Edwin
----------15251524
Vlag Nederland
WUBBEN Niels
----------16---
Vlag Nederland
VERMELTFOORT Coen
----------22--19
Vlag Nederland
SMIT Mark
----------24212026
Vlag Nederland
VAN BEEM Tommy
----------2620--
Vlag Nederland
VAN NUNEN Patrick
----------2722--
Vlag Nederland
VAN VLIET Luuk
----------28---
Vlag Nederland
VAN DEN ENDE Milan
----------30---
Vlag Nederland
ARIESEN Johim
-----------8-14
Vlag Nederland
HARTOGS Ivar
-----------11510
Vlag Nederland
BEUKER Jordy
-----------13--
Vlag Nederland
VAN IJZENDOORN Rik
-----------14712
Vlag Nederland
LUTTENBERG Irjan
-----------15--
Vlag Nederland
VAN ERP Jordy
-----------1613-
Vlag Nederland
VAN VEEN Jorn
-----------171217
Vlag Nederland
STRATING Gijs
-----------23--
Vlag Nederland
VAN DIJK Julian
-----------2716-
Vlag Nederland
DE RIDDER Cees
-----------29--
Vlag Nederland
ROBBEN Ricardo
-----------30--
Vlag Nederland
VAN AMERONGEN Thijs
------------21
Vlag Nederland
BECKING Hans
------------85
Vlag Nederland
BROERS Remco
------------96
Vlag Nederland
KALLENFELS Jerry
------------1016
Vlag Nederland
VAN GROOTEL Koen
------------1118
Vlag Nederland
DEKKERS Jeroen
------------1720
Vlag Nederland
BUSSER Nieck
------------18-
Vlag Nederland
VAN DE BERG Thijs
------------19-
Vlag Nederland
SCHWANER Willem
------------21-
Vlag Nederland
SLEUMER Richard
------------22-
Vlag Nederland
VERHAEGH Jan
------------2327
Vlag Nederland
WAENINK Erwin
------------24-
Vlag Nederland
SIKKING Frank
------------25-
Vlag Nederland
GRIFFIN Jake
------------27-
Vlag Nederland
VERBURG Koen
------------28-
Vlag Nederland
HOMAN Pieter
------------29-
Vlag Nederland
VAN DER VELDE Ricardo
-------------2
Vlag Nederland
VAN LEEUWEN Patrick
-------------4
Vlag Nederland
VAN IJZENDOORN Eddy
-------------7
Vlag Nederland
DE JONGE Daan
-------------8
Vlag Nederland
DIJKXHOORN Rikke
-------------9
Vlag Nederland
SENDERS Bart
-------------13
Vlag Nederland
KOUWENHOVEN Joeri
-------------15
Vlag Nederland
SPRINGINTVELD Joost
-------------21
Vlag Nederland
ADRIAANS Rik
-------------22
Vlag Nederland
LIEBE Enrico
-------------23
Vlag Nederland
ATZORI Umberto
-------------25
Vlag Nederland
VAN DER KOOI Ben
-------------28
Vlag Nederland
BOVEREE Tom
-------------29
Vlag Nederland
FREDERIKS Richard
-------------30