19-20
CJ
18-19
CJ
17-18
CJ
16-17
CJ
15-16
CJ
14-15
CJ
13-14
CJ
12-13
CJ
11-12
CJ
10-11
CJ
09-10
CJ
08-09
CJ
07-08
CJ
06-07
CJ
Vlag België
NYS Thibau
1-------------
Vlag België
BELMANS Lennert
28------------
Vlag België
VERSTRYNGE Emiel
3-------------
Vlag Nederland
DEL GROSSO Tibor
4-------------
Vlag Tsjechië
KOPECKY Matyas
5-------------
Vlag Nederland
KARS Hugo
610------------
Vlag België
HUYBS Ward
74------------
Vlag Verenigd Koninkrijk
MCGUIRE Rory
823------------
Vlag Italië
AGOSTINACCHIO Filippo
9-------------
Vlag België
LAURYSSEN Yorben
10-------------
Vlag Tsjechië
FIALA Matyás
11-------------
Vlag België
BAERS Arne
12-------------
Vlag Duitsland
NEFFGEN Tim
13-------------
Vlag Verenigde Staten
CARTER Nick
14-------------
Vlag Nederland
JANSSEN Lucas
15-------------
Vlag Verenigde Staten
STROHMEYER Andrew
16-------------
Vlag Nederland
BRINKMAN Joost
17-------------
Vlag Nederland
GROENENDAAL Bailey
18-------------
Vlag Nederland
VAN LIEROP Danny
19-------------
Vlag België
VANDERLINDEN Lukas
20-------------
Vlag Verenigd Koninkrijk
CARRICK-ANDERSON Corran
21-------------
Vlag Italië
DE PRETTO Davide
22-------------
Vlag Verenigde Staten
SCOTT Jared
23-------------
Vlag Nederland
ARTZ Huub
24-------------
Vlag België
SOONTJENS Arthur
25-------------
Vlag Verenigde Staten
STIERWALT Lucas
26-------------
Vlag België
CLARYSSE Elio
27-------------
Vlag België
JANSSEN Wout
2850------------
Vlag Verenigde Staten
SHEFFIELD Magnus
29-------------
Vlag België
MEEUSEN Ruben
30-------------
Vlag Italië
CAPRA Manuel
5227------------
Vlag België
MEEUSSEN Witse
-1------------
Vlag Verenigd Koninkrijk
TULETT Ben
-2------------
Vlag België
CORTJENS Ryan
-312-----------
Vlag Verenigd Koninkrijk
ASKEY Lewis
-5------------
Vlag België
VERVOORT Wout
-611-----------
Vlag Nederland
VERBURG Luke
-716-----------
Vlag Nederland
VREESWIJK Noah
-923-----------
Vlag België
VAN LOOVEREN Joachim
-11------------
Vlag België
PEIRENS Yente
-12------------
Vlag Verenigde Staten
MORTON Alex
-13------------
Vlag Tsjechië
JEZEK Tomás
-1422-----------
Vlag Verenigd Koninkrijk
BIRCHILL Harry
-15------------
Vlag Nederland
STRIK Dylan
-16------------
Vlag Nederland
ALVARADO Salvador
-17------------
Vlag België
COREMANS Dante
-18------------
Vlag België
MALEZSEWSKI Lukas
-1920-----------
Vlag Duitsland
UHLIG Henri
-20------------
Vlag België
CAS Stijn
-21------------
Vlag Verenigd Koninkrijk
PIDCOCK Joseph
-22------------
Vlag Tsjechië
HLADIK Josef
-2445-----------
Vlag Nederland
DELNOIJE Rémon
-2532-----------
Vlag Denemarken
ANDRESEN Tobias Lund
-26------------
Vlag Verenigd Koninkrijk
COUZENS Tom
-28------------
Vlag Verenigde Staten
VAN KEMPEN Jules
-29------------
Vlag Verenigd Koninkrijk
CLACY Barney
-30------------
Vlag Zwitserland
ROUILLER Loris
--110----------
Vlag Nederland
KAMP Ryan
--2-----------
Vlag Tsjechië
KOPECKY Tomás
--34----------
Vlag België
KUYPERS Gerben
--4-----------
Vlag België
BELLENS Jarno
--534----------
Vlag België
VANDEPUTTE Niels
--66----------
Vlag Nederland
HENDRIKX Mees
--77----------
Vlag België
DE VET Sander
--817----------
Vlag België
DEWULF Maxim
--9-----------
Vlag België
JORDENS Jarno
--1037----------
Vlag België
VAN DEN EYNDE Vince
--1328----------
Vlag Tsjechië
SCHIERL Jakub
--14-----------
Vlag België
VAN DEN BROECK Arno
--1511----------
Vlag Tsjechië
TOUPALIK Jakub
--17-----------
Vlag Verenigd Koninkrijk
FLYNN Sean
--18-----------
Vlag Luxemburg
KLUCKERS Arthur
--19-----------
Vlag Luxemburg
PRIES Cédric
--21-----------
Vlag Tsjechië
RIMAN Jakub
--24-----------
Vlag Nederland
ARTZ Bart
--2526----------
Vlag Spanje
INGUANZO MACHO Gonzalo
--26-----------
Vlag Frankrijk
BREL Antoine
--2740----------
Vlag België
CUCU Arno
--28-----------
Vlag Verenigd Koninkrijk
KNIGHT Harrison
--29-----------
Vlag Verenigd Koninkrijk
KNIGHT Jacob
--30-----------
Vlag België
HORNY Clément
--3718----------
Vlag België
CLYNHENS Jens
--4123----------
Vlag België
CAMPS Jelle
---142---------
Vlag België
VANDEBOSCH Toon
---2----------
Vlag Nederland
ARENSMAN Thymen
---37---------
Vlag België
GOEMAN Andreas
---514---------
Vlag Canada
HOLMGREN Gunnar
---857---------
Vlag Nederland
AGTERBERG Kyle
---9----------
Vlag België
VERDONCK Andres
---12----------
Vlag Nederland
HAZEKAMP Bart
---13----------
Vlag Verenigde Staten
MAHER Lane
---14----------
Vlag België
VRACHTEN Arne
---15----------
Vlag Verenigde Staten
STEPHENSON Denzel
---1620---------
Vlag België
SPRANGERS Lloyd
---19----------
Vlag België
SIEMONS Julian
---20----------
Vlag België
THYS Joren
---21----------
Vlag Verenigd Koninkrijk
TULETT Daniel
---2222---------
Vlag België
LEMMENS Sander
---24----------
Vlag Nederland
VAN HELVOIRT Koen
---2524---------
Vlag Verenigde Staten
SWARTZ Caleb
---27----------
Vlag België
VAN RILLAER Witse
---29----------
Vlag Canada
SANDERSON Brody
---3048---------
Vlag België
VERMEERSCH Florian
---465---------
Vlag België
JASPERS Jappe
----12--------
Vlag Nederland
DEKKER Jens
----29--------
Vlag Verenigde Staten
PETROV Spencer
----332--------
Vlag Verenigde Staten
HECHT Gage
----44--------
Vlag België
BAUTERS Reno
----6---------
Vlag België
DRIESEN Jarne
----86--------
Vlag België
DHOORE Alessio
----9---------
Vlag Nederland
WOLSINK Thijs
----10---------
Vlag België
ROMBOUTS Seppe
----11---------
Vlag Verenigde Staten
BRUNNER Eric
----12---------
Vlag België
DE CLERCQ Jari
----13---------
Vlag Duitsland
MÖBIS Maximilian
----15---------
Vlag Spanje
CULLELL ESTAPE Jofre
----16---------
Vlag Verenigd Koninkrijk
TURNER Ben
----17---------
Vlag Frankrijk
GAGNAIRE Maxime
----18---------
Vlag Verenigde Staten
BEARD Cameron
----1926--------
Vlag België
BEKAERT Yentl
----21---------
Vlag België
VANDEBOSCH Victor
----23---------
Vlag België
TIELEMANS Jente
----25---------
Vlag Verenigde Staten
CLOUSE Evan
----26---------
Vlag Duitsland
MÄRKL Niklas
----27---------
Vlag Tsjechië
GAVENDA Jan
----28---------
Vlag België
VAN GOETHEM Fabio
----29---------
Vlag Duitsland
RUDOLPH Poul
----30---------
Vlag België
ISERBYT Eli
-----12-------
Vlag Zwitserland
JACOBS Johan
-----317-------
Vlag Nederland
GULICKX Max
-----514-------
Vlag Nederland
VAN DER HEIJDEN Maik
-----7--------
Vlag België
SIEBENS Gianni
-----8--------
Vlag Italië
SALA Stefano
-----10--------
Vlag Italië
ROSSI Giorgio
-----11--------
Vlag Nederland
GROOT Mitch
-----12--------
Vlag Verenigde Staten
HALEY Gavin
-----1316-------
Vlag België
DEVOS Han
-----1426-------
Vlag België
HERMANS Briek
-----1533-------
Vlag Nederland
MUSKENS Mart
-----16--------
Vlag België
LIESSENS Jarno
-----17--------
Vlag Verenigde Staten
WILLSEY Cooper
-----1842-------
Vlag Verenigde Staten
HAIDET Lance
-----1932-------
Vlag Nederland
BOUWMANS Dylan
-----20--------
Vlag België
CROLLET Yari
-----2123-------
Vlag België
HELSOCHT Liam
-----22--------
Vlag Italië
MANDELLI Federico
-----23--------
Vlag Verenigde Staten
DUNN Liam
-----2435-------
Vlag België
DE MAEGHT Dorian
-----2541-------
Vlag België
SIEMONS Stijn
-----27--------
Vlag Frankrijk
ROBERT Esteban
-----28--------
Vlag Zwitserland
GRAB Joël
-----29--------
Vlag België
STEEGMANS Einar
-----30--------
Vlag België
VERHEYEN Thomas
-----3427-------
Vlag België
PEETERS Yannick
------1-------
Vlag België
GOOSSENS Kobe
------36------
Vlag België
VAN HECKE Elias
------417------
Vlag Tsjechië
LEHKY Roman
------5-------
Vlag België
SCHUERMANS Jelle
------6-------
Vlag België
JOSEPH Thomas
------728------
Vlag België
TEIRLINCK Jens
------835------
Vlag Nederland
WOUTERS Sieben
------921------
Vlag België
VERHEYEN Nick
------10-------
Vlag België
VERBRAKEN Jorn
------1134------
Vlag Verenigde Staten
GOGUEN Peter
------1236------
Vlag België
JACOBS Sybren
------13-------
Vlag België
VAN ROOSBROECK Pieter
------1522------
Vlag België
HOFMAN Stijn
------18-------
Vlag Polen
GIL Remigiusz
------1931------
Vlag Nederland
VAN DIJKE Koen
------20-------
Vlag Verenigde Staten
CHANCE Maxx
------2127------
Vlag Verenigde Staten
REYNOLDS Ethan
------22-------
Vlag Verenigde Staten
BRADY Nolan
------24-------
Vlag Verenigde Staten
GERCHAR Garrett
------2547------
Vlag Nederland
VAN DEN KLUNDERT Pim
------28-------
Vlag Verenigde Staten
ELLWOOD Grant
------29-------
Vlag Tsjechië
VRANA Dominik
------30-------
Vlag België
VAN DONINK Gianni
------3425------
Vlag Nederland
VAN DER POEL Mathieu
-------11-----
Vlag Verenigde Staten
OWEN Logan
-------28-----
Vlag België
HERMANS Quinten
-------35-----
Vlag België
CLEPPE Nicolas
-------410-----
Vlag België
DEGROOTE Jonas
-------533-----
Vlag België
BOETS Ben
-------719-----
Vlag Nederland
WIJKEL Stan
-------8------
Vlag België
VAN LAER Ward
-------9------
Vlag België
AERTS Thijs
-------10------
Vlag Frankrijk
GAY Raphael
-------1122-----
Vlag Nederland
JANSEN Richard
-------12------
Vlag Frankrijk
HAVOT Sébastien
-------13------
Vlag Frankrijk
MORICHON Mathieu
-------1423-----
Vlag België
VAN DEN DRIESSCHE Din
-------1524-----
Vlag Frankrijk
ORTILLON Valentin
-------16------
Vlag België
DE VOCHT Jochen
-------18------
Vlag België
AMEEL Alexander
-------1927-----
Vlag België
COOLEN Yves
-------20------
Vlag Frankrijk
PHILIBERT Aurelien
-------23------
Vlag Frankrijk
DEROUINT Maxime
-------24------
Vlag Verenigde Staten
MORSE Nathaniel
-------2652-----
Vlag België
VANDERAERDEN Massimo
-------2939-----
Vlag Verenigde Staten
BASSETT Stephen
-------3055-----
Vlag Frankrijk
JAUREGUI Quentin
--------2-----
Vlag België
VAN AERT Wout
--------3-----
Vlag België
SOETE Daan
--------411----
Vlag Nederland
WEIJERS Koen
--------655----
Vlag België
VAN DE VELDE Matthias
--------7-----
Vlag België
VAN TICHELT Yorben
--------9-----
Vlag België
VANKEIRSBILCK Berne
--------1143----
Vlag Verenigde Staten
DILLMAN Andrew
--------1231----
Vlag Nederland
VAN BEEK Pjotr
--------1328----
Vlag Nederland
BUDDING Martijn
--------14-----
Vlag Nederland
KRAMER Erik
--------1516----
Vlag Frankrijk
KOWALSKI Dylan
--------1633----
Vlag Nederland
ARIESEN Tim
--------1717----
Vlag België
VEROFT Jelto
--------1820----
Vlag Polen
PALUTA Michal
--------20-----
Vlag Nederland
WOUTERS Toon
--------2121----
Vlag België
MERLIER Braam
--------25-----
Vlag België
VANDEN DRIES Jelle
--------26-----
Vlag Verenigd Koninkrijk
WELBURN Alexander
--------28-----
Vlag Verenigde Staten
WHITE Curtis
--------29-----
Vlag België
HUYGEN Tijs
--------30-----
Vlag Nederland
VAN POPPEL Danny
---------12---
Vlag België
SWEECK Laurens
---------24---
Vlag Nederland
GODRIE Stan
---------3----
Vlag België
VANDEKINDEREN Jens
---------4----
Vlag Tsjechië
SKALA Jakub
---------5----
Vlag België
PEETERS Daniel
---------6----
Vlag Nederland
VERBERNE Douwe
---------720---
Vlag Nederland
DE MAN Jaap
---------8----
Vlag België
VANTHOURENHOUT Michael
---------9----
Vlag Verenigde Staten
ECKMANN Yannick
---------1017---
Vlag België
AERTS Toon
---------12----
Vlag Nederland
BRUSSELMAN Twan
---------1325---
Vlag Tsjechië
MEDEK Tomas
---------14----
Vlag Tsjechië
NIPL Vojtech
---------1522---
Vlag België
VAN DEN DRIESSCHE Niels
---------1828---
Vlag Nederland
VAN ROOYEN Bryan
---------19----
Vlag Verenigde Staten
FOX Bjorn
---------22----
Vlag België
SWEECK Diether
---------2312---
Vlag Tsjechië
BOHATA Tomas
---------24----
Vlag Verenigd Koninkrijk
ROBINSON Hugo
---------25----
Vlag België
PEPERMANS Lorenzo
---------2631---
Vlag Nederland
MEIJERS Jeroen
---------2737---
Vlag België
COUCKUYT Jens
---------29----
Vlag Verenigd Koninkrijk
JOHNSTONE Taylor
---------30----
Vlag Nederland
TEUNISSEN Mike
----------19--
Vlag Nederland
VAN DER POEL David
----------316--
Vlag Nederland
BOSMAN Gert-Jan
----------5---
Vlag België
ADAMS Jens
----------630--
Vlag Tsjechië
BOROS Michael
----------7---
Vlag Nederland
VAN DER HEIJDEN Michiel
----------84--
Vlag België
MEURISSE Xandro
----------915--
Vlag Tsjechië
PAPRSTKA Tomas
----------10---
Vlag Tsjechië
LASAK Matej
----------11---
Vlag België
VERMEERSCH Gianni
----------13---
Vlag Zwitserland
MÜLLER Lukas
----------1414--
Vlag België
BAELEN Jesper
----------1521--
Vlag Tsjechië
POLNICKY Radek
----------16---
Vlag België
HOFMAN Joeri
----------18---
Vlag Tsjechië
VESELY Daniel
----------19---
Vlag Zwitserland
FORSTER Lars
----------21---
Vlag Frankrijk
CARESMEL Alexis
----------23---
Vlag Verenigd Koninkrijk
MCLAY Daniel
----------24---
Vlag Zwitserland
LIENHARD Fabian
----------26---
Vlag Polen
PILIS Bartosz
----------27---
Vlag België
BOUTTÉ Kenzie
----------29---
Vlag Duitsland
BÖHM-GRÄBER Wenzel
----------30---
Vlag Zwitserland
CHAVANNE Gabriel
----------3228--
Vlag Nederland
EISING Tijmen
-----------12-
Vlag Nederland
VAN DER HAAR Lars
-----------218-
Vlag België
BOSMANS Wietse
-----------311-
Vlag Nederland
VAN KESSEL Corné
-----------517-
Vlag Verenigde Staten
MCDONALD Zach
-----------634-
Vlag België
DE CLERCQ Angelo
-----------7--
Vlag België
DE VOCHT Bart
-----------8--
Vlag Nederland
KRAUWEL Bas
-----------1015-
Vlag België
KOYEN Niels
-----------1127-
Vlag Verenigde Staten
MANNION Gavin
-----------1229-
Vlag Nederland
MEIJERS Daan
-----------1339-
Vlag Zwitserland
BARBEN Emilien
-----------17--
Vlag België
GEERTS Frederik
-----------18--
Vlag België
SCHEIRE Ruben
-----------19--
Vlag Nederland
LUGTEN Jelle
-----------20--
Vlag Zwitserland
GRAND Anthony
-----------22--
Vlag Verenigde Staten
EMSKY Eric
-----------2336-
Vlag België
BRAET Vinnie
-----------24--
Vlag België
PEETERS Karl
-----------25--
Vlag Nederland
VAN BEUSEKOM Wilco
-----------26--
Vlag Zwitserland
STAUBLE Dario
-----------27--
Vlag Verenigde Staten
KAISER Cody
-----------29--
Vlag Slowakije
SAGAN Peter
------------1-
Vlag Zwitserland
RUPP Matthias
------------3-
Vlag België
BODEN Stef
------------4-
Vlag Nederland
VAN DER HORST Geert
------------511
Vlag België
VAN KEIRSBULCK Guillaume
------------6-
Vlag Zwitserland
GRAND Arnaud
------------7-
Vlag Nederland
OCKELOEN Jasper
------------8-
Vlag België
DE BIE Sean
------------9-
Vlag Nederland
VAN DER SANDEN Harm
------------1024
Vlag België
WILLEMS Zeb
------------129
Vlag België
BEELEN Sven
------------13-
Vlag België
GEETS Simon
------------1446
Vlag Nederland
SLENTER Kaj
------------16-
Vlag België
VEESTRAETEN Ruben
------------1923
Vlag Nederland
SMIT Kevin
------------2029
Vlag België
BOSSUYT Matthias
------------21-
Vlag België
DIELEMAN Michiel
------------2222
Vlag Frankrijk
KOWALSKI Rudy
------------23-
Vlag Duitsland
WALSLEBEN Max
------------24-
Vlag België
COBBAERT Robby
------------25-
Vlag België
VREYS Mike
------------2634
Vlag België
BERVOETS Jonathan
------------2826
Vlag Nederland
VAN LEIJEN Steven
------------3016
Vlag Nederland
BARKHUIS Bart
------------3227
Vlag België
ADAMS Joeri
-------------1
Vlag Nederland
VAN DEN BRAND Twan
-------------2
Vlag Verenigde Staten
SUMMERHILL Daniel
-------------3
Vlag Nederland
SINKELDAM Ramon
-------------4
Vlag België
EECKHOUT Kevin
-------------5
Vlag België
COP Kristof
-------------6
Vlag België
VERBOVEN Sven
-------------7
Vlag België
BAESTAENS Vincent
-------------8
Vlag België
PIROTTE Pieter-Jan
-------------10
Vlag Nederland
VAN DER VELDE Rob
-------------12
Vlag België
LACROIX Dany
-------------13
Vlag Nederland
MOTKÉ Ritchie
-------------14
Vlag Verenigd Koninkrijk
MCEVOY Jonathan
-------------15
Vlag Verenigd Koninkrijk
THWAITES Scott
-------------17
Vlag Nederland
BEUKER Jordy
-------------18
Vlag Verenigde Staten
TOWNSEND Jerome
-------------19
Vlag België
MARIEN Kenneth
-------------20
Vlag België
SCHEIRS Kristof
-------------21
Vlag België
PIZZY Kaëll
-------------25
Vlag Verenigde Staten
LENNON Jim
-------------28
Vlag Verenigde Staten
WORSECH Sean
-------------30