UCI

UCI Coppa del Mondo Ciclocross 2022-2023 - Uomini Elite

Calendario

#
Data
Gara
Risultati

Classificazione Generale

# CorridorePunti#1#2#3#4#5#6#7#8#9#10#11#12#13#14
1
Bandiera Belgio
SWEECK Laurens
21430302240402230------- 
2
Bandiera Belgio
ISERBYT Eli
21040404025211925------- 
3
Bandiera Belgio
VANTHOURENHOUT Michael
17922252522254020------- 
4
Bandiera Paesi Bassi
VAN DER HAAR Lars
16225-3030302522------- 
5
Bandiera Belgio
VANDEPUTTE Niels
12218191921191115------- 
6
Bandiera Belgio
VANDEBOSCH Toon
95917617151417------- 
7
Bandiera Belgio
ADAMS Jens
89--2018161718------- 
8
Bandiera Svizzera
KUHN Kevin
81--1820111616------- 
9
Bandiera Paesi Bassi
NIEUWENHUIS Joris
79---15222121------- 
10
Bandiera Belgio
SOETE Daan
76192014137-3------- 
11
Bandiera Belgio
BAESTAENS Vincent
74131318171012------- 
12
Bandiera Repubblica Ceca
BOROS Michael
72121617122211------- 
13
Bandiera Spagna
ORTS LLORET Felipe
71--101420819------- 
14
Bandiera Paesi Bassi
KAMP Ryan
64--15161815-------- 
15
Bandiera Belgio
NYS Thibau
622121---20-------- 
16
Bandiera Svizzera
RÜEGG Timon
601715779-5------- 
17
Bandiera Paesi Bassi
RONHAAR Pim
51207--618-------- 
18
Bandiera Francia
MENUT David
50168-41057------- 
19
Bandiera Paesi Bassi
HENDRIKX Mees
46--11214613------- 
20
Bandiera Belgio
LOOCKX Lander
421010-9-121------- 
21
Bandiera Belgio
AERTS Thijs
4151416--42------- 
22
Bandiera Paesi Bassi
VAN DER POEL Mathieu
40------40------- 
23
Bandiera Belgio
HERMANS Quinten
40--2119---------- 
24
Bandiera Stati Uniti
BRUNNER Eric
371522------------ 
25
Bandiera Gran Bretagna
PIDCOCK Tom
30-----30-------- 
26
Bandiera Belgio
MEEUSSEN Witse
30----1299------- 
27
Bandiera Spagna
SUAREZ FERNANDEZ Kevin
29--1211--6------- 
28
Bandiera Belgio
MEEUSEN Tom
28149--5--------- 
29
Bandiera Belgio
VERSTRYNGE Emiel
27-----1314------- 
30
Bandiera Belgio
WYSEURE Joran
25718------------ 
31
Bandiera Stati Uniti
WHITE Curtis
231112------------ 
32
Bandiera Francia
LELANDAIS Rémi
19811------------ 
33
Bandiera Paesi Bassi
GODRIE Stan
18--563-4------- 
34
Bandiera Paesi Bassi
HAVERDINGS David
1726--81-------- 
35
Bandiera Belgio
FERDINANDE Anton
16--133---------- 
36
Bandiera Belgio
KUYPERS Gerben
13----13--------- 
37
Bandiera Paesi Bassi
DEL GROSSO Tibor
10------10------- 
38
Bandiera Francia
DUBAU Joshua
10---10---------- 
39
Bandiera Repubblica Ceca
STYBAR Zdenek
9--9----------- 
40
Bandiera Paesi Bassi
VAN KESSEL Corné
9----1-8------- 
41
Bandiera Francia
PERIOU Tony
9---54--------- 
42
Bandiera Gran Bretagna
MEIN Thomas
8--8----------- 
43
Bandiera Stati Uniti
HAIDET Lance
835------------ 
44
Bandiera Canada
VAN DEN HAM Michael
844------------ 
45
Bandiera Germania
MEISEN Marcel
7-----7-------- 
46
Bandiera Stati Uniti
SPRANGER Jack
66------------- 
47
Bandiera Repubblica Ceca
RIMAN Jakub
4--4----------- 
48
Bandiera Svizzera
MOTTIEZ Gilles
3-----3-------- 
49
Bandiera Italia
BERTOLINI Gioele
3--3----------- 
50
Bandiera Stati Uniti
DILLMAN Andrew
3-3------------ 
51
Bandiera Polonia
KONWA Marek
2--2----------- 
52
Bandiera Germania
HERRMANN Lukas
2-2------------ 
53
Bandiera Francia
CHAINEL Steve
1---1---------- 
54
Bandiera Stati Uniti
SHELTON Marcis
1-1------------ 
55
Bandiera Stati Uniti
SWARTZ Caleb
11------------- 

Video

Mappa

Sistema di punti

1. 40
2. 30
3. 25
4. 22
5. 21
6. 20
7. 19
8. 18
9. 17
10. 16
11. 15
12. 14
13. 13
14. 12
15. 11
16. 10
17. 9
18. 8
19. 7
20. 6
21. 5
22. 4
23. 3
24. 2
25. 1

Sito web