Location Waterloo, WI, Stati Uniti
 
22-23
CDM
22-23
C1
21-22
CDM
21-22
C2
19-20
CDM
19-20
C2
18-19
CDM
18-19
C2
17-18
CDM
17-18
C2
16-17
C1
16-17
C2
15-16
C2
15-16
C1
Bandiera Belgio
ISERBYT Eli
1-1-1-7DNF114----
Bandiera Belgio
SWEECK Laurens
2---1613521-----
Bandiera Paesi Bassi
VAN DER HAAR Lars
314-13-18-17-----
Bandiera Belgio
VANTHOURENHOUT Michael
4-2-3-DNF-4-----
Bandiera Belgio
NYS Thibau
5-DNF-----------
Bandiera Paesi Bassi
RONHAAR Pim
6-19-----------
Bandiera Belgio
SOETE Daan
7212111-523-86--
Bandiera Belgio
VANDEPUTTE Niels
8-5-----------
Bandiera Svizzera
RÜEGG Timon
95--30---------
Bandiera Francia
MENUT David
103------------
Bandiera Stati Uniti
BRUNNER Eric
11-25-40-38-------
Bandiera Belgio
MEEUSEN Tom
1210--15DNF15410107---
Bandiera Belgio
BAESTAENS Vincent
13-7-24---143----
Bandiera Repubblica Ceca
BOROS Michael
147----1091314----
Bandiera Stati Uniti
WHITE Curtis
15823-18-23-37-----
Bandiera Belgio
LOOCKX Lander
169--26---------
Bandiera Belgio
VANDEBOSCH Toon
17411-----------
Bandiera Francia
LELANDAIS Rémi
1812------------
Bandiera Belgio
WYSEURE Joran
19-------------
Bandiera Stati Uniti
SPRANGER Jack
2018------------
Bandiera Belgio
AERTS Thijs
216152127166259----
Bandiera Canada
VAN DEN HAM Michael
2214245281229-29-149--
Bandiera Stati Uniti
HAIDET Lance
2316207--37---1918--
Bandiera Paesi Bassi
HAVERDINGS David
24DNF------------
Bandiera Stati Uniti
SWARTZ Caleb
251136-36--15-25----
Bandiera Stati Uniti
FUNSTON Scott
26-27944---------
Bandiera Stati Uniti
DILLMAN Andrew
271332-3114DNF1139151513--
Bandiera Stati Uniti
SHELTON Marcis
28DNF------------
Bandiera Stati Uniti
STROHMEYER Andrew
291529DNF----------
Bandiera Canada
SANDERSON Brody
303230-----50-----
Bandiera Stati Uniti
VAN KEMPEN Jules
3217------------
Bandiera Canada
SCOTT Cody
3320------------
Bandiera Stati Uniti
FIX Brannan
3424--2921--------
Bandiera Stati Uniti
MOCK Daxton
352235-----------
Bandiera Canada
WOODFORD Alexander
3630------------
Bandiera Stati Uniti
MCNEILL Dillon
3721-19----------
Bandiera Stati Uniti
NOEL Sam
382337-----------
Bandiera Canada
VALENTI Luke
3927------------
Bandiera Canada
O'DONNELL Trevor
4137--DNF-41-4922----
Bandiera Stati Uniti
MATTER Brian
-19-13-18-17-1329-45
Bandiera Stati Uniti
HILDEBRANDT Casey
-25-12------26252726
Bandiera Stati Uniti
LARSON Michael
-26-----23-31----
Bandiera Stati Uniti
GINIAT Andrew
-28-25-23-25-34----
Bandiera Stati Uniti
FREDERICK Ben
-2938-----------
Bandiera Stati Uniti
LANDO Nicholas
-34-174120--------
Bandiera Stati Uniti
UETRECHT Ryder
-39-23----------
Bandiera Stati Uniti
BLOYD-PESHKIN Jeremy
-47-33-30--------
Bandiera Stati Uniti
MYLES Mark
-DNF-14-31--------
Bandiera Belgio
HERMANS Quinten
--3-6-419-35--
Bandiera Belgio
AERTS Toon
--6-2-1-8293--
Bandiera Paesi Bassi
KAMP Ryan
--8-----------
Bandiera Belgio
ADAMS Jens
--9-9-17-20-----
Bandiera Paesi Bassi
VAN KESSEL Corné
--10-55632544--
Bandiera Svizzera
KUHN Kevin
--13-359--------
Bandiera Stati Uniti
WERNER Kerry
--1431711221826DNF13117-
Bandiera Italia
TONEATTI Davide
--16-----------
Bandiera Belgio
FERDINANDE Anton
--17-----------
Bandiera Germania
MEISEN Marcel
--18DNF----24DNF----
Bandiera Stati Uniti
HECHT Gage
--21-27---4017----
Bandiera Gran Bretagna
MEIN Thomas
--22-----------
Bandiera Paesi Bassi
VAN DER MEER Gosse
--2610----------
Bandiera Italia
MASCIARELLI Lorenzo
--28-----------
Bandiera Stati Uniti
MCGILL Scott
--318----------
Bandiera Canada
RODGERS Lief
--3422----------
Bandiera Canada
LELIVELD Matthew
--4011----------
Bandiera Stati Uniti
HYDE Stephen
--DNF6206DNFDNF18-5-12
Bandiera Stati Uniti
ORTENBLAD Tobin
---434163020277108--
Bandiera Stati Uniti
ANDERSON Jonathan
---15----------
Bandiera Stati Uniti
SERVETAS Tommy
---16----------
Bandiera Stati Uniti
TABARES Nicholas
---18----------
Bandiera Stati Uniti
O'CONNOR Finnegan
---20----------
Bandiera Stati Uniti
ARENS Luke
---21----------
Bandiera Stati Uniti
LEBLANC Jacob
---24----------
Bandiera Stati Uniti
CARTER Nick
---26----------
Bandiera Stati Uniti
NEFF Isaac
---27-36---DNF3723--
Bandiera Stati Uniti
WEST Brian
---28----------
Bandiera Stati Uniti
BAUER Josh
---29-----23---20
Bandiera Stati Uniti
RILEY Matthew
---30----------
Bandiera Stati Uniti
LEMKE Nicholas
---38---DNF-302831--
Bandiera Belgio
VERMEERSCH Gianni
----4---30DNF----
Bandiera Belgio
CLEPPE Nicolas
----7220-------
Bandiera Paesi Bassi
NIEUWENHUIS Joris
----8---------
Bandiera Belgio
AERNOUTS Jim
----10-8719-22--
Bandiera Francia
CHAINEL Steve
----144111012DNF61--
Bandiera Spagna
ORTS LLORET Felipe
----193--------
Bandiera Belgio
SWEECK Diether
----21DNF13846-----
Bandiera Spagna
SUAREZ FERNANDEZ Kevin
----228--------
Bandiera Paesi Bassi
GODRIE Stan
----2310211622DNF----
Bandiera Svizzera
WINTERBERG Lukas
----2515--------
Bandiera Stati Uniti
DRISCOLL James
----32-26-38-12-53
Bandiera Stati Uniti
BRADFORD-PARISH Kevin
----3725------1316
Bandiera Stati Uniti
KAISER Cody
----38-25---2519--
Bandiera Stati Uniti
ELLWOOD Ross
----3924--------
Bandiera Canada
VANDALE Danick
----4217------1723
Bandiera Stati Uniti
THOMPSON Eric
----45-3222-18--1013
Bandiera Canada
JETTE Cameron
----4629--------
Bandiera Paesi Bassi
WOUTERS Sieben
-----132414------
Bandiera Stati Uniti
MORTON Alex
-----19--------
Bandiera Stati Uniti
SCHMALZ Joseph
-----22--------
Bandiera Stati Uniti
JACK Rory
-----26--------
Bandiera Stati Uniti
CLOUTIER Tyler
-----27--------
Bandiera Stati Uniti
POSTIER Dylan
-----28-DNF-32----
Bandiera Stati Uniti
REYES David
-----33-30-413132-30
Bandiera Belgio
VAN AERT Wout
------2-7-1---
Bandiera Belgio
MERLIER Tim
------9-5622---
Bandiera Belgio
PAUWELS Kevin
------12-6-----
Bandiera Francia
BOULO Matthieu
------14122311----
Bandiera Francia
CANAL Fabien
------19-------
Bandiera Gran Bretagna
FIELD Ian
------27-288----
Bandiera Stati Uniti
CLARK Anthony
------28-32-----
Bandiera Stati Uniti
KRUGHOFF Allen
------31-43-201626
Bandiera Stati Uniti
SELANDER Bjorn
------3321-44-27--
Bandiera Canada
HOLMGREN Gunnar
------35244239----
Bandiera Stati Uniti
KISSEBERTH Jack
------3913------
Bandiera Canada
RICHEY Craig
------40-48---815
Bandiera Australia
MILLBURN Garry
------42-3416----
Bandiera Canada
NILES Isaac
------43--24----
Bandiera Stati Uniti
LINDINE Justin
------DNF193620----
Bandiera Stati Uniti
WHITNEY Josh
-------26------
Bandiera Stati Uniti
HOUSE Cole
-------27------
Bandiera Stati Uniti
DIETZ Andrew
-------28------
Bandiera Stati Uniti
RUSS Kyle
-------29-27-30--
Bandiera Paesi Bassi
VAN DER POEL Mathieu
--------11----
Bandiera Belgio
VANTHOURENHOUT Dieter
--------15-----
Bandiera Belgio
BOSMANS Wietse
--------16-----
Bandiera Stati Uniti
CHANCE Maxx
--------31---2019
Bandiera Stati Uniti
PETROV Spencer
--------3312----
Bandiera Belgio
PEETERS Rob
--------35-117--
Bandiera Stati Uniti
LIVERMON Travis
--------41191615--
Bandiera Canada
MCCONNELL Mark
--------4421----
Bandiera Canada
ST. JOHN Derrick
--------4729----
Bandiera Nuova Zelanda
SHARRATT Brendon
--------DNF28----
Bandiera Stati Uniti
POWERS Jeremy
--------DNF----1
Bandiera Canada
WIEBE Jason
---------263628--
Bandiera Stati Uniti
FOSLER Bryan
---------36--3033
Bandiera Stati Uniti
SHEEK David
---------42--2635
Bandiera Stati Uniti
ECKMANN Yannick
----------1712--
Bandiera Stati Uniti
SUMMERHILL Daniel
----------1817--
Bandiera Belgio
VANDEKINDEREN Jens
----------21---
Bandiera Stati Uniti
WELLS Troy
----------232167
Bandiera Francia
MARECAILLE Antonin
----------2414--
Bandiera Germania
SONNTAG Benjamin
----------2729--
Bandiera Australia
AITKEN Christopher
----------3020--
Bandiera Stati Uniti
MACKEY Skyler
----------33261927
Bandiera Stati Uniti
LASLEY Jacob
----------3922168
Bandiera Paesi Bassi
VAN AMERONGEN Thijs
-----------10--
Bandiera Stati Uniti
DRUMMOND Chris
-----------242232
Bandiera Stati Uniti
TIMMERMAN Dan
------------34
Bandiera Stati Uniti
HOKE Mitchell
------------911
Bandiera Stati Uniti
WELLS Jake
------------1118
Bandiera Stati Uniti
SCHOUTEN Tristan
------------129
Bandiera Stati Uniti
MCPHERSON Ian
------------1414
Bandiera Stati Uniti
SHORT Philip
------------1517
Bandiera Stati Uniti
TEATERS Dan
------------18-
Bandiera Stati Uniti
MORAN Micah
------------2128
Bandiera Stati Uniti
BRAUN Travis
------------2324
Bandiera Stati Uniti
MCSHANE Ian
------------2422
Bandiera Stati Uniti
TALERICO Dominic
------------2525
Bandiera Stati Uniti
STEVENSON Russell
------------2810
Bandiera Stati Uniti
BERKLAND Sam
------------2934
Bandiera Stati Uniti
MARTIN Alexander
------------3421
Bandiera Stati Uniti
SMITH Scott
-------------12
Bandiera Stati Uniti
STELLJES Corey
-------------29