Location Hendersonville, NC, États Unis
 
21-22
C2
21-22
C2
19-20
C2
19-20
C2
18-19
C2
17-18
C2
17-18
C2
16-17
C2
16-17
C2
15-16
C2
15-16
C2
14-15
C2
14-15
C2
13-14
C2
Drapeau États Unis
WERNER Kerry
12111112475119
Drapeau États Unis
MCGILL Scott
25-15---1721-----
Drapeau États Unis
HECHT Gage
31------------
Drapeau États Unis
CUPP Cody
43------------
Drapeau Canada
ORSCHEL Tyler
54------------
Drapeau Canada
CLARK Tyler
69248---------
Drapeau États Unis
DILLMAN Andrew
710-------1420377
Drapeau Canada
CLARK Owen
816------------
Drapeau États Unis
MCDONALD Brody
918------------
Drapeau États Unis
THOMPSON Eric
10832423----9613
Drapeau États Unis
GORRY Richard Cypress
11151112-914-------
Drapeau États Unis
ZAKRAJSEK Dylan
1214------------
Drapeau États Unis
RYAN Alex
1322-DNF7811691215-2917
Drapeau États Unis
FIX Brannan
146------------
Drapeau États Unis
LIVERMON Travis
151743954132222-
Drapeau États Unis
JACK Rory
162497----------
Drapeau États Unis
MCDONALD Ian
1711------------
Drapeau États Unis
GINIAT Andrew
182076141510-------
Drapeau États Unis
STROHMEYER Andrew
19DNF------------
Drapeau États Unis
CLOUTIER Tyler
2019------------
Drapeau Canada
BARTON Malcolm
2123-9----------
Drapeau États Unis
GREEN Alex
2221------------
Drapeau États Unis
JOHNSON Kyle
2313------------
Drapeau États Unis
JEDLICKA Ethan
2425------------
Drapeau États Unis
MCNEILL Dillon
2512------------
Drapeau États Unis
MORSE Nathaniel
2628-29---8-3236-4016
Drapeau États Unis
PERLEY Bradford
2729121111101214---111227
Drapeau États Unis
ARENS Luke
2832------------
Drapeau États Unis
KNOWLES Nathan
29DNF------------
Drapeau États Unis
JUNGE Frederick
3030--25---------
Drapeau États Unis
SWINAND Peter
3327------------
Drapeau États Unis
STIERWALT Lucas
DNF26------------
Drapeau États Unis
VAN KEMPEN Jules
-7------------
Drapeau États Unis
SEITZ William
-401726----------
Drapeau États Unis
DAVIS Merwin
--5554678-----
Drapeau États Unis
BLACKBURN Trent
--68DNF------3034-
Drapeau États Unis
BECKETT Carson
--810----------
Drapeau États Unis
SHAW Walker
--101312---------
Drapeau États Unis
RICE Byron
--1321DNF6134613122019-
Drapeau États Unis
DIETZ Andrew
--141823---------
Drapeau États Unis
MARION Robert
--151618--551194812
Drapeau États Unis
SCARANO Andrew
--16----22------
Drapeau États Unis
NIESEN Christopher
--1819----------
Drapeau États Unis
LEWIS Simon
--1922----------
Drapeau États Unis
COLLINS Patrick
--2017----------
Drapeau États Unis
THOMPSON Charles
--2127-1620-------
Drapeau États Unis
BORNER Thomas
--2224----------
Drapeau États Unis
LOUIS Rhys
--2320----------
Drapeau États Unis
BIRCH Derek
--2425----------
Drapeau États Unis
WHITE Jack
--2528----------
Drapeau États Unis
MULLALY Keith
--DNF14-DNF161014-----
Drapeau États Unis
VANWINKLE Nicholas
---23----------
Drapeau États Unis
LIVERMON Lucas
---DNF-1822181828243730-
Drapeau États Unis
WILLSEY Cooper
----2-2-23016---
Drapeau Canada
HOLMGREN Gunnar
----3---------
Drapeau États Unis
RHIM Brendan
----6------1023-
Drapeau États Unis
COWIE Tristan
----1035314-51121
Drapeau États Unis
BARTON Nathan
----13---------
Drapeau États Unis
SMITH Scott
----15----1013-27-
Drapeau Canada
DINIZ Nicholas
----16---------
Drapeau États Unis
SCHROEDER Allan
----17---------
Drapeau États Unis
BAUER Josh
----19---------
Drapeau États Unis
GIELAR Ian
----20---------
Drapeau États Unis
POTTER Michael
----21---------
Drapeau États Unis
JOHNSTON Spencer
----22---------
Drapeau Canada
MYSKO Paul
----24---------
Drapeau États Unis
OKENFUSS Jon
----261719-------
Drapeau États Unis
WALKER Jason
----27---------
Drapeau États Unis
DONAHUE Alec
----DNF-----23--18
Drapeau États Unis
HYDE Stephen
----DNF--------6
Drapeau États Unis
SWARTZ Caleb
-----78-------
Drapeau États Unis
NEFF Isaac
-----117-------
Drapeau États Unis
BICKMORE Cade
-----129-------
Drapeau États Unis
KIEFFER Samuel
-----1317-------
Drapeau États Unis
LANDRY Michael
-----1415-------
Drapeau États Unis
SPONSEL Alistair
-----1921-------
Drapeau États Unis
MYERS Scott
------18-------
Drapeau États Unis
HOUGH Charlie
------23-------
Drapeau États Unis
HINDMAN Steve
------24-------
Drapeau États Unis
NYSTROM Anders
------25-------
Drapeau États Unis
REARDON Andrew
-------9102222192220
Drapeau États Unis
GAFFNEY Lewis
-------111531291510-
Drapeau États Unis
TIMMERMAN Dan
-------127--363-
Drapeau États Unis
SHEFTALL William
-------13132928---
Drapeau États Unis
BAILEY Andrew
-------15-27-253128
Drapeau États Unis
TRAVIESO Frank
-------16121925179-
Drapeau États Unis
HOFFNER Scott
-------1917-----
Drapeau États Unis
VRAMBOUT Oliver
-------2020----24
Drapeau États Unis
BARNES Will
-------21194338---
Drapeau États Unis
GOORSKEY Abe
-------23243834---
Drapeau États Unis
WIKOFF Phil
-------24------
Drapeau États Unis
BROOKSHIRE Grayson
-------25---3238-
Drapeau États Unis
HOUGH III Charles
--------11-----
Drapeau États Unis
BASSETT Stephen
--------16-----
Drapeau États Unis
REEVES Matthew
--------224033---
Drapeau Nouvelle-Zélande
WRIGHT Paul
--------23-----
Drapeau États Unis
KLINE Gavin
--------25-----
Drapeau États Unis
SUMMERHILL Daniel
---------11---
Drapeau États Unis
CLARK Anthony
---------367514
Drapeau États Unis
ECKMANN Yannick
---------54--5
Drapeau États Unis
MATTER Brian
---------63--10
Drapeau États Unis
FREDERICK Ben
---------8884-
Drapeau États Unis
WITTWER Greg
---------911--15
Drapeau États Unis
WOODALL Ryan
---------1514---
Drapeau États Unis
VROUWENVELDER Luke
---------1621---
Drapeau États Unis
MYERSON Adam
---------1717181411
Drapeau États Unis
HILDEBRANDT Casey
---------1819---
Drapeau États Unis
SHORT Philip
---------20102315-
Drapeau États Unis
WHITTIER Spencer
---------2126---
Drapeau États Unis
KISSEBERTH Jack
---------2327---
Drapeau États Unis
OBERMAN Cole
---------24----
Drapeau États Unis
MCNICHOLAS Dylan
---------25----
Drapeau États Unis
WELLS Jake
---------2618---
Drapeau États Unis
RESEK Hunter
---------35353326-
Drapeau États Unis
VAN WINKLE Nicholas
---------36-24--
Drapeau États Unis
MEUCCI Alex
---------3730---
Drapeau États Unis
BERGEY Gunnar
---------42-263222
Drapeau Canada
JETTE Cameron
----------7---
Drapeau États Unis
WELLS Troy
-----------6203
Drapeau États Unis
KELLEY Josh
-----------1216-
Drapeau États Unis
BRADFORD-PARISH Kevin
-----------13138
Drapeau États Unis
RICHARDS Westley
-----------141725
Drapeau États Unis
SCHEMPF Weston
-----------1618-
Drapeau États Unis
RIMMER Robert
-----------2125-
Drapeau États Unis
JOHNSON Joshua
-----------22--
Drapeau États Unis
TANKERSLEY Nolan
-----------2745-
Drapeau États Unis
BARING Elliott
-----------283326
Drapeau États Unis
WOLF Dan
-----------2939-
Drapeau États Unis
HAMBLEN Jonathan
------------21-
Drapeau États Unis
WAITE Nick
------------24-
Drapeau États Unis
HILL Brian
------------28-
Drapeau États Unis
POWERS Jeremy
-------------1
Drapeau États Unis
MCDONALD Zach
-------------2
Drapeau États Unis
JOHNSON Timothy
-------------4
Drapeau États Unis
TURNER Thomas
-------------19
Drapeau États Unis
FORKNER David
-------------23
Drapeau États Unis
HANCOCK Todd
-------------29
Drapeau États Unis
BROWN Nathan
-------------30