UCI

UCI Copa del Mundo Ciclocross 2023-2024 - Élite Masculino

Calendario

#
Fecha
Carrera
Resultados

Clasificación

# CorredorPuntos#1#2#3#4#5#6#7#8#9#10#11#12#13#14
1
Bandera Bélgica
ISERBYT Eli
33830302240254021222520-202221 
2
Bandera Países Bajos
NIEUWENHUIS Joris
31322201325-224025212230301330 
3
Bandera Países Bajos
RONHAAR Pim
29525144094025-30151822221025 
4
Bandera Países Bajos
VAN DER HAAR Lars
29321403030-30-20202125181919 
5
Bandera Bélgica
VANDEPUTTE Niels
23918228171721301919819111515 
6
Bandera Países Bajos
VAN DER POEL Mathieu
221--------404040402140 
7
Bandera Bélgica
SWEECK Laurens
220-252520301420-22-2025613 
8
Bandera Bélgica
VANDEBOSCH Toon
21316151718151516181669212011 
9
Bandera Países Bajos
KAMP Ryan
2091917162119181716-141816144 
10
Bandera Bélgica
NYS Thibau
1964019-19207--1713-142522 
11
Bandera Bélgica
VANTHOURENHOUT Michael
16720---16-2221101917-3012 
12
Bandera Suiza
KUHN Kevin
165-1620121820191412311893 
13
Bandera Bélgica
WYSEURE Joran
163-1118-221625113-1217820 
14
Bandera Bélgica
ADAMS Jens
122-1019142117-116107-7- 
15
Bandera Bélgica
VAN AERT Wout
121--------303021-40- 
16
Bandera España
ORTS LLORET Felipe
120-21107----14121471817 
17
Bandera Bélgica
MEEUSSEN Witse
1181781110141-17811-912- 
18
Bandera Gran Bretaña
PIDCOCK Tom
101-------4018251-17- 
19
Bandera Gran Bretaña
MASON Cameron
98-1815-11-1513-1610--- 
20
Bandera Bélgica
VERSTRYNGE Emiel
93-914--19---171519-- 
21
Bandera República Checa
BOROS Michael
91-4915---10774101114 
22
Bandera Países Bajos
VAN KESSEL Corné
85-1312131313-153-3--- 
23
Bandera Suiza
RÜEGG Timon
83---16--18711213--16 
24
Bandera Bélgica
KUYPERS Gerben
76-12212212---9----- 
25
Bandera Suiza
ROUILLER Loris
49156-69310------- 
26
Bandera Francia
VENTURINI Clément
41----------611618 
27
Bandera Francia
MENUT David
40--75-11-8-1---8 
28
Bandera Italia
BERTOLINI Gioele
40---4--591582-6 
29
Bandera Bélgica
LOOCKX Lander
26--68-12-------- 
30
Bandera Bélgica
FERDINANDE Anton
2512-----13------- 
31
Bandera Países Bajos
HENDRIKX Mees
25---3-8-5---4-5 
32
Bandera Francia
DUBAU Joshua
24---11-10-3------ 
33
Bandera Bélgica
AERTS Thijs
23------912-----2 
34
Bandera Estados Unidos
FUNSTON Scott
207-2110--------- 
35
Bandera España
SUAREZ FERNANDEZ Kevin
20--------4--349 
36
Bandera Bélgica
HERMANS Quinten
18----------513-- 
37
Bandera Alemania
MEISEN Marcel
18--3----6-4-5-- 
38
Bandera Países Bajos
GODRIE Stan
17------1142----- 
39
Bandera Países Bajos
DEL GROSSO Tibor
16----------16--- 
40
Bandera Bélgica
HUYBS Ward
15-----------15-- 
41
Bandera Bélgica
MICHELS Jente
15---------15---- 
42
Bandera Estados Unidos
BRUNNER Eric
1510-----------5- 
43
Bandera Suiza
SOMMER Lars
14------14------- 
44
Bandera Estados Unidos
STROHMEYER Andrew
1414------------- 
45
Bandera Bélgica
MERLIER Tim
14--------59---- 
46
Bandera Bélgica
SOETE Daan
1313------------- 
47
Bandera Polonia
KONWA Marek
13------------310 
48
Bandera Bélgica
VERMEERSCH Gianni
12-----------12-- 
49
Bandera Bélgica
BAERS Arne
12------12------- 
50
Bandera Países Bajos
HAVERDINGS David
1111------------- 
51
Bandera Francia
CRISPIN Mickaël
10-5---5-------- 
52
Bandera Francia
CASTILLE Noé
9-----9-------- 
53
Bandera Estados Unidos
SPRANGER Jack
99------------- 
54
Bandera Italia
CEOLIN Federico
8------8------- 
55
Bandera Gran Bretaña
BARNES Toby
8----8--------- 
56
Bandera Canadá
ACKERT Ian
88------------- 
57
Bandera Francia
BOMMENEL Nathan
8-2---------6-- 
58
Bandera España
JUNQUERA SAN MILLAN Mario
8---25-------1- 
59
Bandera República Checa
RIMAN Jakub
7-------------7 
60
Bandera Suiza
MOTTIEZ Gilles
7------7------- 
61
Bandera Irlanda
MOORE Darnell
7----7--------- 
62
Bandera Francia
LELANDAIS Rémi
7-7------------ 
63
Bandera Estados Unidos
WHITE Curtis
75-----------2- 
64
Bandera Suiza
OPPIZZI Matteo
6------6------- 
65
Bandera Francia
PERIOU Tony
6-----6-------- 
66
Bandera Irlanda
DAWSON Chris
6----6--------- 
67
Bandera Estados Unidos
SWARTZ Caleb
66------------- 
68
Bandera Bélgica
VAN DE PUTTE Victor
5--5----------- 
69
Bandera Gran Bretaña
MEIN Thomas
5--4----------1 
70
Bandera Países Bajos
VAN LIEROP Danny
5-3--------2--- 
71
Bandera Alemania
DEGENKOLB Hannes
4------4------- 
72
Bandera Francia
GABRIEL Timothé
4-----4-------- 
73
Bandera Irlanda
MCCAMBRIDGE Kevin
4----4--------- 
74
Bandera Canadá
CLARK Tyler
44------------- 
75
Bandera Italia
FOLCARELLI Antonio
3------3------- 
76
Bandera Irlanda
O'REILLY Paul
3----3--------- 
77
Bandera Canadá
VAN DEN HAM Michael
33------------- 
78
Bandera Francia
REMONDET Valentin
2-------2------ 
79
Bandera Italia
AGOSTINACCHIO Filippo
2------2------- 
80
Bandera Francia
DUBAU Lucas
2-----2-------- 
81
Bandera Irlanda
BARRY Richard
2----2--------- 
82
Bandera Estados Unidos
SHELTON Marcis
22------------- 
83
Bandera Italia
HUEZ Emanuele
1------1------- 
84
Bandera Irlanda
O'FLYNN Ronan
1----1--------- 
85
Bandera Bélgica
LAURYSSEN Yorben
1--1----------- 
86
Bandera Francia
GROSLAMBERT Martin
1-1------------ 
87
Bandera Estados Unidos
VAN KEMPEN Jules
11------------- 

Video

Mapa

Sistema de puntuación

1. 40
2. 30
3. 25
4. 22
5. 21
6. 20
7. 19
8. 18
9. 17
10. 16
11. 15
12. 14
13. 13
14. 12
15. 11
16. 10
17. 9
18. 8
19. 7
20. 6
21. 5
22. 4
23. 3
24. 2
25. 1

Sitio web