UCI

UCI Copa del Mundo Ciclocross 2022-2023 - Élite Masculino

Calendario

#
Fecha
Carrera
Resultados

Clasificación

# CorredorPuntos#1#2#3#4#5#6#7#8#9#10#11#12#13#14
1
Bandera Bélgica
SWEECK Laurens
2363030224040223022------ 
2
Bandera Bélgica
ISERBYT Eli
2304040402521192520------ 
3
Bandera Bélgica
VANTHOURENHOUT Michael
2042225252225402025------ 
4
Bandera Países Bajos
VAN DER HAAR Lars
18325-303030252221------ 
5
Bandera Bélgica
VANDEPUTTE Niels
1391819192119111517------ 
6
Bandera Bélgica
ADAMS Jens
108--201816171819------ 
7
Bandera Bélgica
VANDEBOSCH Toon
989176171514173------ 
8
Bandera Suiza
KUHN Kevin
94--182011161613------ 
9
Bandera Países Bajos
VAN DER POEL Mathieu
80------4040------ 
10
Bandera Países Bajos
NIEUWENHUIS Joris
79---15222121------- 
11
Bandera Países Bajos
KAMP Ryan
79--15161815-15------ 
12
Bandera Bélgica
BAESTAENS Vincent
791313181710125------ 
13
Bandera Bélgica
SOETE Daan
76192014137-3------- 
14
Bandera República Checa
BOROS Michael
761216171222114------ 
15
Bandera España
ORTS LLORET Felipe
73--1014208192------ 
16
Bandera Bélgica
NYS Thibau
632121---20-1------ 
17
Bandera Suiza
RÜEGG Timon
601715779-5------- 
18
Bandera Países Bajos
HENDRIKX Mees
53--112146137------ 
19
Bandera Países Bajos
RONHAAR Pim
51207--618-------- 
20
Bandera Francia
MENUT David
50168-41057------- 
21
Bandera Gran Bretaña
PIDCOCK Tom
48-----30-18------ 
22
Bandera Bélgica
LOOCKX Lander
421010-9-121------- 
23
Bandera Bélgica
WYSEURE Joran
41718-----16------ 
24
Bandera Bélgica
AERTS Thijs
4151416--42------- 
25
Bandera Bélgica
HERMANS Quinten
40--2119---------- 
26
Bandera Bélgica
MEEUSSEN Witse
40----129910------ 
27
Bandera Bélgica
VERSTRYNGE Emiel
39-----131412------ 
28
Bandera Estados Unidos
BRUNNER Eric
371522------------ 
29
Bandera España
SUAREZ FERNANDEZ Kevin
37--1211--68------ 
30
Bandera Bélgica
VAN AERT Wout
30-------30------ 
31
Bandera Bélgica
MEEUSEN Tom
28149--5--------- 
32
Bandera Países Bajos
HAVERDINGS David
2826--81-11------ 
33
Bandera Países Bajos
DEL GROSSO Tibor
24------1014------ 
34
Bandera Estados Unidos
WHITE Curtis
231112------------ 
35
Bandera Francia
LELANDAIS Rémi
19811------------ 
36
Bandera Países Bajos
GODRIE Stan
18--563-4------- 
37
Bandera Gran Bretaña
MEIN Thomas
17--8----9------ 
38
Bandera Bélgica
FERDINANDE Anton
16--133---------- 
39
Bandera Países Bajos
VAN KESSEL Corné
15----1-86------ 
40
Bandera Bélgica
KUYPERS Gerben
13----13--------- 
41
Bandera Francia
DUBAU Joshua
10---10---------- 
42
Bandera República Checa
STYBAR Zdenek
9--9----------- 
43
Bandera Francia
PERIOU Tony
9---54--------- 
44
Bandera Estados Unidos
HAIDET Lance
835------------ 
45
Bandera Canadá
VAN DEN HAM Michael
844------------ 
46
Bandera Alemania
MEISEN Marcel
7-----7-------- 
47
Bandera Estados Unidos
SPRANGER Jack
66------------- 
48
Bandera República Checa
RIMAN Jakub
4--4----------- 
49
Bandera Suiza
MOTTIEZ Gilles
3-----3-------- 
50
Bandera Italia
BERTOLINI Gioele
3--3----------- 
51
Bandera Estados Unidos
DILLMAN Andrew
3-3------------ 
52
Bandera Polonia
KONWA Marek
2--2----------- 
53
Bandera Alemania
HERRMANN Lukas
2-2------------ 
54
Bandera Francia
CHAINEL Steve
1---1---------- 
55
Bandera Estados Unidos
SHELTON Marcis
1-1------------ 
56
Bandera Estados Unidos
SWARTZ Caleb
11------------- 

Video

Mapa

Sistema de puntuación

1. 40
2. 30
3. 25
4. 22
5. 21
6. 20
7. 19
8. 18
9. 17
10. 16
11. 15
12. 14
13. 13
14. 12
15. 11
16. 10
17. 9
18. 8
19. 7
20. 6
21. 5
22. 4
23. 3
24. 2
25. 1

Sitio web