UCI

UCI Copa del Mundo Ciclocross 2021-2022 - Élite Masculino

Calendario

#
Fecha
Carrera
Resultados
 
05-12-2021
Cancelado

Clasificación

# CorredorPuntos#1#2#3#4#5#6#7#8#9#10#11#12#13#14#15
1
Bandera Bélgica
ISERBYT Eli
2854030402540304040------- 
2
Bandera Bélgica
AERTS Toon
2062022224025222530------- 
3
Bandera Países Bajos
VAN DER HAAR Lars
17522123030204021-------- 
4
Bandera Bélgica
HERMANS Quinten
17525402121212522-------- 
5
Bandera Bélgica
VANTHOURENHOUT Michael
173302525203021-22------- 
6
Bandera Países Bajos
VAN KESSEL Corné
129161061819192021------- 
7
Bandera Bélgica
VANDEBOSCH Toon
116151714171191518------- 
8
Bandera Bélgica
SWEECK Laurens
110---2222203016------- 
9
Bandera Bélgica
SOETE Daan
1081415191991418-------- 
10
Bandera Bélgica
BAESTAENS Vincent
10719-161113181911------- 
11
Bandera Países Bajos
KAMP Ryan
1031814181416-914------- 
12
Bandera Bélgica
VANDEPUTTE Niels
10021195118-1620------- 
13
Bandera Bélgica
ADAMS Jens
93172020151011--------- 
14
Bandera Alemania
MEISEN Marcel
798111323121317------- 
15
Bandera Suiza
KUHN Kevin
77137151361085------- 
16
Bandera Países Bajos
RONHAAR Pim
69721-16---25------- 
17
Bandera Bélgica
MEEUSEN Tom
51----8131119------- 
18
Bandera Bélgica
VERSTRYNGE Emiel
51-169-14--12------- 
19
Bandera Bélgica
FERDINANDE Anton
5094176--14-------- 
20
Bandera Gran Bretaña
MASON Cameron
36---917-10-------- 
21
Bandera Estados Unidos
HECHT Gage
3451811------------ 
22
Bandera Países Bajos
HENDRIKX Mees
34---107-17-------- 
23
Bandera Bélgica
AERTS Thijs
33116124----------- 
24
Bandera España
ORTS LLORET Felipe
31---85-315------- 
25
Bandera República Checa
BOROS Michael
28---12-853------- 
26
Bandera Países Bajos
VAN DER POEL David
27-----1512-------- 
27
Bandera Italia
BERTOLINI Gioele
21-----17-4------- 
28
Bandera Estados Unidos
WHITE Curtis
213810------------ 
29
Bandera Países Bajos
NIEUWENHUIS Joris
20---515---------- 
30
Bandera Gran Bretaña
MEIN Thomas
204133------------ 
31
Bandera Francia
DUBAU Joshua
20----12--8------- 
32
Bandera Estados Unidos
WERNER Kerry
201217------------ 
33
Bandera Bélgica
LOOCKX Lander
19------613------- 
34
Bandera Italia
TONEATTI Davide
19109------------- 
35
Bandera Italia
DORIGONI Jakob
16-----16--------- 
36
Bandera Francia
MENUT David
13-----7-6------- 
37
Bandera Francia
THOMAS Théo
12---3--27------- 
38
Bandera Bélgica
MICHELS Jente
10-------10------- 
39
Bandera Canadá
VAN DEN HAM Michael
102-8------------ 
40
Bandera Estados Unidos
BRUNNER Eric
10154------------ 
41
Bandera Suiza
ROUILLER Loris
9-------9------- 
42
Bandera Estados Unidos
HAIDET Lance
9621------------ 
43
Bandera Bélgica
NYS Thibau
7------7-------- 
44
Bandera Bélgica
MEEUSSEN Witse
7---7----------- 
45
Bandera Polonia
KONWA Marek
6-----6--------- 
46
Bandera República Checa
PAPRSTKA Tomas
5-----5--------- 
47
Bandera Países Bajos
GODRIE Stan
4------4-------- 
48
Bandera República Checa
VANICEK Simon
4-----4--------- 
49
Bandera Francia
GUILLAUD Valentin
4----4---------- 
50
Bandera España
SUAREZ FERNANDEZ Kevin
4-----31-------- 
51
Bandera Italia
MASCIARELLI Lorenzo
3-3------------- 
52
Bandera Francia
PERIOU Tony
2-------2------- 
53
Bandera Bélgica
SWEECK Diether
2-----2--------- 
54
Bandera Suiza
RÜEGG Timon
2----2---------- 
55
Bandera Países Bajos
VAN DER MEER Gosse
2--2------------ 
56
Bandera Francia
HUBY Antoine
1-------1------- 
57
Bandera Suiza
JEKER Hannes
1-----1--------- 
58
Bandera Francia
GRAS Yan
1----1---------- 

Video

Mapa

Sistema de puntuación

1. 40
2. 30
3. 25
4. 22
5. 21
6. 20
7. 19
8. 18
9. 17
10. 16
11. 15
12. 14
13. 13
14. 12
15. 11
16. 10
17. 9
18. 8
19. 7
20. 6
21. 5
22. 4
23. 3
24. 2
25. 1

Sitio web