21-22
CN
19-20
CN
18-19
CN
17-18
CN
16-17
CN
15-16
CN
14-15
CN
13-14
CN
12-13
CN
11-12
CN
10-11
CN
09-10
CN
08-09
CN
07-08
CN
Bandera Países Bajos
HAVERDINGS David
1-------------
Bandera Países Bajos
VAN DEN EIJNDEN Guus
2-------------
Bandera Países Bajos
JOCHEMS Jelte
3-------------
Bandera Países Bajos
KORTLEVE Bart
4-------------
Bandera Países Bajos
NAGENGAST Juul
5-------------
Bandera Países Bajos
PLAS Yaël
6-------------
Bandera Países Bajos
PRINS Jari
7-------------
Bandera Países Bajos
VAN REES Christiaan
8-------------
Bandera Países Bajos
NIEUWENHUIS Patrick
9-------------
Bandera Países Bajos
KLIJN Nick
10-------------
Bandera Países Bajos
VAN HEMERT Felix
11-------------
Bandera Países Bajos
VRIEZEN Toinne
12-------------
Bandera Países Bajos
BOUTEN Freek
13-------------
Bandera Países Bajos
DE VOS Mees
14-------------
Bandera Países Bajos
TEN THIJE Nauk
15-------------
Bandera Países Bajos
UPTEGROVE Ed
16-------------
Bandera Países Bajos
TURK Casper
17-------------
Bandera Países Bajos
VELDKAMP Ties
18-------------
Bandera Países Bajos
DE GROOT Quin
19-------------
Bandera Países Bajos
SCHOOFS Daan
20-------------
Bandera Países Bajos
KEUNING Laurens
21-------------
Bandera Países Bajos
DIEPSTRA Patrick
22-------------
Bandera Países Bajos
DE JAGER Halvar
23-------------
Bandera Países Bajos
BROUWER Jordy
24-------------
Bandera Países Bajos
WIT Lars
25-------------
Bandera Países Bajos
FOX Dylan
26-------------
Bandera Países Bajos
GRÖMMEL Rens
27-------------
Bandera Países Bajos
VAN DUREN Mees
28-------------
Bandera Países Bajos
VAN DER LINDEN Sjoerd
29-------------
Bandera Países Bajos
VAN KERKVOORDE Ruben
30-------------
Bandera Países Bajos
DEL GROSSO Tibor
-1------------
Bandera Países Bajos
JANSSEN Lucas
-2------------
Bandera Países Bajos
VAN LIEROP Danny
-3------------
Bandera Países Bajos
KARS Hugo
-44-----------
Bandera Países Bajos
VAN DER DRIFT Twan
-59-----------
Bandera Países Bajos
GROENENDAAL Bailey
-6------------
Bandera Países Bajos
DE HEIJ Joppe
-78-----------
Bandera Países Bajos
BRINKMAN Joost
-8------------
Bandera Países Bajos
SCHELLEKENS Tom
-9------------
Bandera Países Bajos
VAN HEIJST Jordi
-10------------
Bandera Países Bajos
VAN DIJK Chris
-11------------
Bandera Países Bajos
KRAMER Jesse
-12------------
Bandera Países Bajos
DE VOS Yanick
-13------------
Bandera Países Bajos
VAN DER VLEUTEN Lukas
-1411-----------
Bandera Países Bajos
DE VOS Youp
-15------------
Bandera Países Bajos
ARTZ Huub
-16------------
Bandera Países Bajos
VAN GORP Mat
-17------------
Bandera Países Bajos
TIMMER Maiko
-1816-----------
Bandera Países Bajos
STORMS Miel
-1924-----------
Bandera Países Bajos
KOUDIJS Omar
-20------------
Bandera Países Bajos
VAN DEN HURK Noud
-2121-----------
Bandera Países Bajos
JANSEN Cas
-22------------
Bandera Países Bajos
BOONTJES Job
-23------------
Bandera Países Bajos
VRIEZEN Steijn
-2436-----------
Bandera Países Bajos
CHOW Brett
-25------------
Bandera Países Bajos
GORIS Max
-26------------
Bandera Países Bajos
DEUTEKOM Mike
-2726-----------
Bandera Países Bajos
VAN KORVEN Jens
-2829-----------
Bandera Países Bajos
OOSTERHOLT Sam
-29------------
Bandera Países Bajos
BUIJS Quinten
-3010-----------
Bandera Países Bajos
VAN HOFTEN Levi
-4214-----------
Bandera Países Bajos
REINDERINK Pepijn
-DNF20-----------
Bandera Países Bajos
RONHAAR Pim
--16----------
Bandera Países Bajos
BOVEN Lars
--211----------
Bandera Países Bajos
ALVARADO Salvador
--3-----------
Bandera Países Bajos
VREESWIJK Noah
--54----------
Bandera Países Bajos
VERBURG Luke
--63----------
Bandera Países Bajos
UPTEGROVE Pete
--718----------
Bandera Países Bajos
GELEIJN Owen
--1212----------
Bandera Países Bajos
STRIK Dylan
--13-----------
Bandera Países Bajos
LEDOUX Frans
--15-----------
Bandera Países Bajos
TER LAAK Stef
--1715----------
Bandera Países Bajos
DELNOIJE Rémon
--1813----------
Bandera Países Bajos
DEL GROSSO Bodi
--197----------
Bandera Países Bajos
DE SCHEPPER Ward
--2221----------
Bandera Países Bajos
POTTER James
--23-----------
Bandera Países Bajos
KRAMER Jip
--25-----------
Bandera Países Bajos
SCHUCH Mike
--27-----------
Bandera Países Bajos
VAN DER LEE Jardi Christiaan
--2843----------
Bandera Países Bajos
ROMERS Boris
--30-----------
Bandera Países Bajos
DAMIAANS Wesley
--3410----------
Bandera Países Bajos
VAN DEN BOOM Luca
--DNF16----------
Bandera Países Bajos
KAMP Ryan
---12---------
Bandera Países Bajos
HENDRIKX Mees
---26---------
Bandera Países Bajos
ARTZ Bart
---54---------
Bandera Países Bajos
ZIEMERINK Milan
---8----------
Bandera Países Bajos
PLUIMERS Rick
---927---------
Bandera Países Bajos
SEELEN Jurgen
---1412---------
Bandera Países Bajos
DE VRIES Rick
---1735---------
Bandera Países Bajos
LOOHUIS Lars
---1914---------
Bandera Países Bajos
EHLERT Marco
---2038---------
Bandera Países Bajos
HAZEKAMP Bart
---225---------
Bandera Países Bajos
BAKKER Niels
---2347---------
Bandera Países Bajos
VAN GESTEL Mika
---24----------
Bandera Países Bajos
VINK Mitchell
---2542---------
Bandera Países Bajos
VAN DER PEET Yoep
---2616---------
Bandera Países Bajos
DE NIJS Maarten
---2718---------
Bandera Países Bajos
GADEMAN Sam
---2819---------
Bandera Países Bajos
KLEIN NIENHUIS Bart
---29----------
Bandera Países Bajos
DILLEMA Mark
---3013---------
Bandera Países Bajos
ARENSMAN Thymen
----1---------
Bandera Países Bajos
VREESWIJK Luca
----3---------
Bandera Países Bajos
VAN HELVOIRT Koen
----78--------
Bandera Países Bajos
FRIJTERS Perry
----8---------
Bandera Países Bajos
VAN DEN BERG Carlo
----9---------
Bandera Países Bajos
BROEX Victor
----10---------
Bandera Países Bajos
GEURTS Kyro
----1115--------
Bandera Países Bajos
BLOEM Joren
----1512--------
Bandera Países Bajos
VAN DEN BERGHEN Lars
----1747--------
Bandera Países Bajos
KALVENHAAR Stijn
----207--------
Bandera Países Bajos
NIJZINGH Sven
----21---------
Bandera Países Bajos
BLUMMEL Robin
----22---------
Bandera Países Bajos
VISSER Jarmo
----23---------
Bandera Países Bajos
LEEMREIZE Gijs
----24---------
Bandera Países Bajos
WITHAG Jeldert
----2521--------
Bandera Países Bajos
VAN CAPEL Menno
----2624--------
Bandera Países Bajos
VAN ZANDBEEK Sjors
----28---------
Bandera Países Bajos
DE JONG Frank
----29---------
Bandera Países Bajos
HEBING Demiz
----3018--------
Bandera Países Bajos
MASTEBROEK Lars
----3320--------
Bandera Países Bajos
DEKKER Jens
-----13-------
Bandera Países Bajos
NOORDAM Marino
-----213-------
Bandera Países Bajos
GROOT Mitch
-----310-------
Bandera Países Bajos
WOLSINK Thijs
-----48-------
Bandera Países Bajos
AGTERBERG Kyle
-----5--------
Bandera Países Bajos
VRIELINK Yannick
-----67-------
Bandera Países Bajos
BOUWMANS Bryan
-----9--------
Bandera Países Bajos
POLDERVAART Mario
-----10--------
Bandera Países Bajos
DEKKER David
-----1123-------
Bandera Países Bajos
RUIJTER Teus
-----1328-------
Bandera Países Bajos
OLDE MONNIKHOF Guus
-----14--------
Bandera Países Bajos
VERBRUGGEN Niels
-----1629-------
Bandera Países Bajos
MOURIS Teun
-----17--------
Bandera Países Bajos
OLDE MEIERINK Lars
-----19--------
Bandera Países Bajos
VAN DINTHER Bas
-----22--------
Bandera Sudáfrica
VORSTER Emri
-----23--------
Bandera Países Bajos
BOOTSVELD Jelle
-----25--------
Bandera Países Bajos
GAMBON Rob
-----26--------
Bandera Países Bajos
VAN UUM Lars
-----27--------
Bandera Países Bajos
VAN HOREN Noah
-----28--------
Bandera Países Bajos
BIJWAARD Thijs
-----2930-------
Bandera Países Bajos
HOOG ANTINK Viktor
-----3035-------
Bandera Países Bajos
GULICKX Max
------12------
Bandera Países Bajos
VAN DER STEGEN Roel
------28------
Bandera Países Bajos
VAN DEN BOS Perry
------4-------
Bandera Países Bajos
FLOREN Wesley
------5-------
Bandera Países Bajos
VAN DER HEIJDEN Maik
------622------
Bandera Países Bajos
WIGGERS Per
------931------
Bandera Países Bajos
VAN BENNEKOM Kevin
------1119------
Bandera Países Bajos
MUSKENS Mart
------1223------
Bandera Países Bajos
NORDEMANN David
------14-------
Bandera Países Bajos
OLIESLAGER Bob
------1518------
Bandera Países Bajos
BOUWMANS Dylan
------167------
Bandera Países Bajos
KOOL Thijs
------1728------
Bandera Países Bajos
MEIJER Sjoerd
------1836------
Bandera Países Bajos
WAGENMAKERS Robbert
------1910------
Bandera Países Bajos
HOCKX David
------2014------
Bandera Países Bajos
BOER Erik
------2116------
Bandera Países Bajos
VAN ELZAKKER Wout
------22-------
Bandera Países Bajos
DE VEER Bart
------2438------
Bandera Países Bajos
MIJNTEN Martin
------2534------
Bandera Países Bajos
TEULINGS Teun
------26-------
Bandera Países Bajos
PENNINGS Bart
------2727------
Bandera Países Bajos
NIEUWENHUIS Joris
-------13-----
Bandera Países Bajos
WOUTERS Sieben
-------34-----
Bandera Países Bajos
EENKHOORN Pascal
-------4------
Bandera Países Bajos
BAKX Kelvin
-------521-----
Bandera Países Bajos
VAN DEN KLUNDERT Pim
-------611-----
Bandera Países Bajos
JAKOBSEN Fabio
-------913-----
Bandera Países Bajos
SCHOLTEN Wiebe
-------11------
Bandera Países Bajos
WIJKEL Tom
-------12------
Bandera Países Bajos
VAN DIJKE Koen
-------139-----
Bandera Países Bajos
WELTEN Bram
-------15------
Bandera Países Bajos
KIP Vincent
-------178-----
Bandera Países Bajos
BEKKERS Ruben
-------20------
Bandera Países Bajos
JANSSEN Tim
-------21------
Bandera Países Bajos
BOELS Joaquim
-------2436-----
Bandera Países Bajos
VAN DE KRUISWEG Dennis
-------25------
Bandera Países Bajos
WEERMAN Henk
-------2631-----
Bandera Países Bajos
VAN NOBELEN Jordi
-------29------
Bandera Países Bajos
VAN HELVOIRT Nick
-------30------
Bandera Países Bajos
VRIELINK Mitchel
-------3227-----
Bandera Países Bajos
REMMERSWAAL Olaf
-------4329-----
Bandera Países Bajos
DE HAAN Jimme
-------5326-----
Bandera Países Bajos
VAN DER POEL Mathieu
--------11----
Bandera Países Bajos
BUDDING Martijn
--------24----
Bandera Países Bajos
WIJKEL Stan
--------57----
Bandera Países Bajos
LAMMERTINK Mats
--------615----
Bandera Países Bajos
VAN DER HEIJDEN Bjorn
--------75----
Bandera Países Bajos
JANSEN Richard
--------1013----
Bandera Países Bajos
VAN DER STELT Sjoerd
--------12-----
Bandera Países Bajos
BRAAM Lehvi
--------1410----
Bandera Países Bajos
VAN DER KOOIJ Bas
--------1520----
Bandera Países Bajos
VAN DEN BURG Teun
--------1630----
Bandera Países Bajos
VEGTER Jeroen
--------1751----
Bandera Países Bajos
WOLSINK Jelle
--------1821----
Bandera Países Bajos
TALEN Jordi
--------19-----
Bandera Países Bajos
GOEREE Rick
--------2018----
Bandera Países Bajos
VAN DE KLUNDERT Koen
--------22-----
Bandera Países Bajos
VAN DE KRUISWEG Raymond
--------23-----
Bandera Países Bajos
SPIER Rafaël
--------2439----
Bandera Países Bajos
VAN BROEKHOVEN Rob
--------25-----
Bandera Países Bajos
DE VRIES Hartthijs
--------28-----
Bandera Países Bajos
VAN DEN WIJNGAARD Bas
--------3033----
Bandera Países Bajos
QUAEDVLIEG Lars
--------3423----
Bandera Países Bajos
WASSENAAR Floris
--------4226----
Bandera Países Bajos
ARIESEN Tim
---------29---
Bandera Países Bajos
WEIJERS Koen
---------34---
Bandera Países Bajos
VAN BEEK Pjotr
---------68---
Bandera Países Bajos
GOEREE Niels
---------8----
Bandera Países Bajos
VAN DE VEN Koen
---------912---
Bandera Países Bajos
KRAMER Erik
---------116---
Bandera Países Bajos
VAN ROOYEN Bryan
---------1211---
Bandera Países Bajos
VAN BAKEL Robbie
---------1415---
Bandera Países Bajos
GIESKENS Nicky
---------1617---
Bandera Países Bajos
VERHOEVEN Mike
---------17----
Bandera Países Bajos
VAN DER DUIN Patrick
---------19----
Bandera Países Bajos
DEKKER Sjors
---------2214---
Bandera Países Bajos
CASTEL Mike
---------24----
Bandera Países Bajos
BRIENISSE Marco
---------2520---
Bandera Países Bajos
VERBEEK Robin
---------27----
Bandera Países Bajos
GERMS Daan
---------2833---
Bandera Países Bajos
VAN DIJK Jasper
---------29----
Bandera Países Bajos
VAN POPPEL Danny
----------15--
Bandera Países Bajos
GODRIE Stan
----------26--
Bandera Países Bajos
VERBERNE Douwe
----------37--
Bandera Países Bajos
DE MAN Jaap
----------515--
Bandera Países Bajos
BRUSSELMAN Twan
----------710--
Bandera Países Bajos
MEIJERS Jeroen
----------1018--
Bandera Países Bajos
EIKELENBOOM Dennis
----------1321--
Bandera Países Bajos
BOROWSKI Bryan
----------1624--
Bandera Países Bajos
BOUWMAN Koen
----------1825--
Bandera Países Bajos
BOER Mike
----------19---
Bandera Países Bajos
KASTELIJN Ian
----------21---
Bandera Países Bajos
SCHUURMANS Paul
----------2233--
Bandera Países Bajos
RATERING Timon
----------23---
Bandera Países Bajos
VAN DEN HOUT Jeroen
----------24---
Bandera Países Bajos
KEUS Robbert
----------25---
Bandera Países Bajos
VAN PAASSEN Wout
----------26---
Bandera Países Bajos
HOL Richard
----------27---
Bandera Países Bajos
BUIJK Jacob
----------28---
Bandera Países Bajos
GROENEWEGEN Dylan
----------29---
Bandera Países Bajos
VAN NIEROP Glenn
----------30---
Bandera Países Bajos
VAN DER POEL David
-----------13-
Bandera Países Bajos
VAN DER HEIJDEN Michiel
-----------24-
Bandera Países Bajos
TEUNISSEN Mike
-----------311-
Bandera Países Bajos
BOSMAN Gert-Jan
-----------45-
Bandera Países Bajos
VAN BAARLE Dylan
-----------8--
Bandera Países Bajos
WELTEN Kay
-----------914-
Bandera Países Bajos
STULTIENS Dennis
-----------1123-
Bandera Países Bajos
KLEINJAN Davey
-----------1225-
Bandera Países Bajos
REINDERS Elmar
-----------1318-
Bandera Países Bajos
VAN BEUSEKOM Wilco
-----------1413-
Bandera Países Bajos
MEEKEN Eddo
-----------16--
Bandera Países Bajos
DE JONG Robert
-----------1738-
Bandera Países Bajos
KASTELIJN Kenny
-----------19--
Bandera Países Bajos
VAN DER HEIJDEN Mark
-----------20--
Bandera Países Bajos
VINK Jeffrey
-----------2229-
Bandera Países Bajos
VAN DER ZIJDEN Lars
-----------23--
Bandera Países Bajos
VAN DER HORST Eelke
-----------26--
Bandera Países Bajos
BOOM Niek
-----------2734-
Bandera Países Bajos
SCHEFFERLIE Gijs
-----------28--
Bandera Países Bajos
DE VRIJER Timo
-----------29--
Bandera Países Bajos
TIMMERMANS Tristan
-----------30--
Bandera Países Bajos
DEKKER Axel
-----------3130-
Bandera Países Bajos
VAN DER HAAR Lars
------------13
Bandera Países Bajos
EISING Tijmen
------------21
Bandera Países Bajos
VAN KESSEL Corné
------------69
Bandera Países Bajos
HOFLAND Moreno
------------723
Bandera Países Bajos
DOLFSMA Emiel
------------8-
Bandera Países Bajos
LUGTEN Jelle
------------95
Bandera Países Bajos
MEIJERS Daan
------------1019
Bandera Países Bajos
VAN RHEE Joey
------------12-
Bandera Países Bajos
KRAUWEL Bas
------------157
Bandera Países Bajos
VAN DEN ENDE Milan
------------1620
Bandera Países Bajos
WENNEKES Robin
------------17-
Bandera Países Bajos
BROERS Erwin
------------19-
Bandera Países Bajos
VAN DIJKE Nick
------------20-
Bandera Países Bajos
KOOT Christian
------------21-
Bandera Países Bajos
FOKKEMA Anne
------------22-
Bandera Países Bajos
HARMSEN Bart
------------24-
Bandera Países Bajos
SMIT Arlan
------------2634
Bandera Países Bajos
VERSTEIJNEN Koen
------------27-
Bandera Países Bajos
GÖDDE Eddy
------------28-
Bandera Países Bajos
SMIT Kevin
-------------2
Bandera Países Bajos
VAN EMPEL Micki
-------------4
Bandera Países Bajos
VAN DER HORST Geert
-------------6
Bandera Países Bajos
OCKELOEN Jasper
-------------8
Bandera Países Bajos
VAN KOOIJ Nils
-------------10
Bandera Países Bajos
VAN BEEM Tommy
-------------11
Bandera Países Bajos
SLENTER Kaj
-------------12
Bandera Países Bajos
VAN DER HEIJDEN Rob
-------------13
Bandera Países Bajos
VAN DER SANDEN Harm
-------------14
Bandera Países Bajos
LAMMERTINK Maurits
-------------15
Bandera Países Bajos
BARKHUIS Bart
-------------16
Bandera Países Bajos
VAN DEN BERGH Stefan
-------------17
Bandera Países Bajos
VAN LEIJEN Steven
-------------18
Bandera Países Bajos
BRUSSELMAN Brian
-------------21
Bandera Países Bajos
STRATING Gijs
-------------22
Bandera Países Bajos
SCHELLEVIS Rutger
-------------24
Bandera Países Bajos
VERMEULEN Jack
-------------25
Bandera Países Bajos
HAAN Wouter
-------------26
Bandera Países Bajos
MOORLAG Henk Jaap
-------------27
Bandera Países Bajos
WETZELS Thom
-------------28
Bandera Países Bajos
VAN NUNEN Patrick
-------------29
Bandera Países Bajos
VAN DIJK Erwin
-------------30