21-22
C2
19-20
C2
18-19
C2
17-18
C2
16-17
C2
15-16
C2
14-15
C2
13-14
C2
12-13
C2
11-12
C2
10-11
C2
09-10
C2
08-09
C2
07-08
C2
Bandera Alemania
MEISEN Marcel
1--311--------
Bandera Bélgica
SOETE Daan
2-------------
Bandera Italia
DORIGONI Jakob
3-586---------
Bandera Italia
FONTANA Filippo
45------------
Bandera Italia
TONEATTI Davide
58------------
Bandera Italia
BERTOLINI Gioele
62212224------
Bandera Italia
SAMPARISI Nicolas
76-7147138162421---
Bandera Italia
LEONE Samuele
813------------
Bandera Italia
PAVAN Marco
91119-----------
Bandera Italia
AGOSTINACCHIO Filippo
10-------------
Bandera Italia
COMINELLI Cristian
1110134-14217-4-1472
Bandera Italia
COLLEDANI Nadir
12-46-121120------
Bandera Italia
SAMPARISI Lorenzo
13971381315181227----
Bandera Italia
PEDERIVA Simone
1428------------
Bandera Italia
PONTA Marco
15-----7-68119265
Bandera Italia
FEDE Gabriel
16-------------
Bandera Italia
HUEZ Emanuele
1718------------
Bandera Italia
FRUET Martino
181211151591264016-20--
Bandera Italia
CEOLIN Federico
191514-----------
Bandera Italia
BERTINI Gabriele
20-------------
Bandera Italia
MANCINELLI Philippe
21-------------
Bandera Italia
BALDESTEIN Raul
2222------------
Bandera Austria
HEIGL Philipp
23-------------
Bandera Italia
LOCONSOLO Ettore
24-------------
Bandera Italia
ZAMPESE Fabio
2516-64----------
Bandera Italia
CASASOLA Manuel
2626------------
Bandera Italia
URSINO Luca
27212128261826-31-4348--
Bandera Italia
CUDICIO Alberto
283034-----------
Bandera Italia
COSTANTINI Riccardo
29-------------
Bandera Italia
PERIN Fabrizio
30-------------
Bandera Italia
FOLCARELLI Antonio
DNF7101016---------
Bandera Bélgica
BAESTAENS Vincent
-112--1-3-----
Bandera República Checa
BOROS Michael
-3--------14---
Bandera Suiza
ZAHNER Simon
-4-------7----
Bandera Italia
CIBRARIO Luca
-141560----------
Bandera Italia
TABACCHI Mirko
-17--11169341310182338
Bandera Italia
SALA Stefano
-19611722--------
Bandera Italia
COVER Leonardo
-2017-----------
Bandera Italia
GAZZOLA Marco
-232335----------
Bandera Italia
FAVERO Emanuel
-243551----------
Bandera Italia
MARTINELLI Andrea
-252830----------
Bandera Italia
CROCESI Edoardo
-27------------
Bandera Chile
ADAOS ALVAREZ Franco Nicolas
-29------------
Bandera Italia
BRAIDOT Luca
--3946898-913--
Bandera Italia
FRANZOI Enrico
--812541021152--
Bandera Italia
BRAIDOT Daniele
--914101120--17-22--
Bandera Italia
VIDONI Matteo
--125947---------
Bandera Italia
CONCA Loris
--16-----------
Bandera Italia
MENICACCI Michael
--18-----------
Bandera Italia
CANEVA Mauro
--20243423--------
Bandera Italia
GAMBARELLI Simone
--2241----------
Bandera Italia
MERLINO Marcello
--2434----------
Bandera Italia
COLOMBO Marco
--2531----------
Bandera Italia
GARGANTINI Dario
--26-----------
Bandera Italia
MARTINELLI Davide
--2765----------
Bandera Italia
SPADONI Gabriele
--29-----------
Bandera Italia
MOLINARI Rudy
--3021-35--------
Bandera Italia
ABATE Matteo
--31-2937--------
Bandera Italia
CANEVA Tommaso
--324035-16-2925----
Bandera Italia
GILIOLI Samuele Silla
--333938304432------
Bandera Luxemburgo
PETELIN Jan
--36-28---------
Bandera Italia
TURSI Loris
--39-----25-40---
Bandera Italia
CAROZZO Marco
--DNF3627---------
Bandera Italia
FONTANA Marco Aurelio
---59-5-52711215
Bandera Italia
TODARO Manuel
---1618-23-19-----
Bandera Italia
BASSANI Michele
---1713---------
Bandera Italia
PACCAGNELLA Thomas
---181281859-19231923
Bandera Italia
DI GIOVANNI Emanuele
---1924---------
Bandera Italia
SMARZARO Daniel
---2023---------
Bandera Italia
GALLI Giulio
---22----------
Bandera Italia
MARCELLI Mattia
---2320----41-38--
Bandera Italia
CISOTTO Yari
---2543253324154330---
Bandera Italia
CAPATI Michael
---26--22-------
Bandera Italia
BONALDA Graziano
---27----------
Bandera Italia
BRANCATI Alberto
---29----------
Bandera Italia
MALACARNE Davide
---33---21------
Bandera Italia
PANZARINI Daniele
---61-2838-------
Bandera Francia
MOUREY Francis
----3331------
Bandera Italia
MANDELLI Federico
----1719--------
Bandera Francia
HUMBERT Valentin
----1917--------
Bandera Italia
VALDRIGHI Stefano
----21---------
Bandera Italia
POZZATO Andrea
----22---------
Bandera Italia
SERENI Alessandro
----25---------
Bandera Italia
GUGLIELMETTI Diego
----30---------
Bandera Italia
QUATTRINI Luca
----31-3130------
Bandera Italia
DI SANTO Alessandro
----3229--------
Bandera República Checa
PAPRSTKA Tomas
-----5---11----
Bandera Italia
FALASCHI Bryan
-----104-7142515--
Bandera Italia
PELLIZZON Moreno
-----1527-------
Bandera Austria
GOLLINGER Karl Heinz
-----2017---36---
Bandera República Checa
SIREK Adrian
-----21--------
Bandera Italia
RIDOLFI Riccardo
-----2432-------
Bandera República Checa
MALIK Michal
-----26---2829---
Bandera Italia
MANDATORI Matteo
-----2730-------
Bandera Italia
BARATTIN Alessio
-----323729------
Bandera Italia
ACQVAVIVA Francesco
-----33--183534---
Bandera República Checa
NIPL Vojtech
------6--20----
Bandera Italia
SILVESTRI Elia
------14101058810-
Bandera Italia
PETTINA Nicholas
------19-------
Bandera Italia
FERRAZZO Nicolo
------24-------
Bandera Italia
PERNA Simone
------25-------
Bandera Italia
BONDAVALLI Alex
------28-------
Bandera Italia
TODARO Fabio Alfonso
------29-361916---
Bandera Italia
CASANOVA Simone
------3927------
Bandera Italia
SIRICA Pasquale
------42223438----
Bandera Italia
TRENTIN Matteo
-------1113-3193422
Bandera Estonia
LOO Martin
-------12------
Bandera Bélgica
VERSCHUEREN Bart
-------1311-----
Bandera Italia
URSI Fabio
-------1417104-317
Bandera Países Bajos
AL Thijs
-------15------
Bandera Italia
DE NICOLA Luca
-------1620-----
Bandera Italia
CAPPONI Stefano
-------17--28---
Bandera Francia
MARTINEZ Miguel
-------19------
Bandera Italia
PEDANTE Francesco
-------2337-----
Bandera Italia
MOZZILLO Francesco
-------25------
Bandera Italia
MOLETTA Simone
-------26------
Bandera Italia
FUMAROLA Denis
-------2826-----
Bandera Países Bajos
VAN DEN BRAND Twan
--------2-----
Bandera Italia
SMARZARO Igor
--------142326---
Bandera Italia
PAVARIN Marcello
--------21-----
Bandera Italia
MIRTELLI Angelo
--------2234----
Bandera Italia
SOTTOCORNOLA Omar
--------23---3128
Bandera Italia
SANTINI Pietro
--------24-22---
Bandera Italia
MASCIARELLI Andrea
--------27-----
Bandera Italia
MASCIARELLI Simone
--------28-----
Bandera Italia
GUZZARDI David
--------303644---
Bandera Polonia
GIL Mariusz
---------3----
Bandera Italia
DAMIANI Luca
---------6-1084
Bandera Italia
BIANCO Marco
---------92413
Bandera Italia
VISINELLI Rafael
---------1217-497
Bandera Italia
FONTANA Alessandro
---------15206912
Bandera República Checa
EBERL Filip
---------18----
Bandera Italia
PAPALEO Domenico
---------213735--
Bandera Italia
GAMBINO Alessandro
---------22137610
Bandera Italia
MENSI Daniele
---------26-253225
Bandera Italia
MERCANTE Gabriele
---------293316--
Bandera Italia
BARONE Roberto
---------30----
Bandera Italia
PAVONI Pietro
---------3338302420
Bandera Italia
GRANDI Alessandro
---------39-2950-
Bandera Bélgica
AERNOUTS Bart
----------1---
Bandera Estados Unidos
PAGE Jonathan
----------6---
Bandera Italia
LONGHI Alex Flavio
----------121743-
Bandera República Checa
NESVADBA Jan
----------15---
Bandera Italia
CALDERAN Alessandro
----------18271616
Bandera Austria
MÖRX Roland
----------23---
Bandera Italia
ARU Fabio
----------242627-
Bandera Rumania
GROSU Eduard Michael
----------27---
Bandera Italia
STRACCIA Michele
----------42372926
Bandera Italia
SEGAT Marco
----------45433524
Bandera Países Bajos
DE KNEGT Gerben
-----------1--
Bandera Bélgica
BERDEN Ben
-----------3--
Bandera Bélgica
VERSTRAETEN Jan
-----------5--
Bandera Italia
ZAMPEDRI Derik
-----------12--
Bandera Italia
LAMASTRA Giuseppe
-----------21--
Bandera Italia
BASSANI Andrea
-----------2455-
Bandera Italia
CORTI Umberto
-----------28--
Bandera Italia
MICHIELETTO Giuseppe
-----------325318
Bandera Italia
ROSSI Mattia
-----------3321-
Bandera República Checa
CHROBAK Jan
-----------391211
Bandera Suiza
HEULE Christian
------------4-
Bandera Países Bajos
GROENENDAAL Richard
------------5-
Bandera Suiza
LANG Pirmin
------------11-
Bandera Bélgica
BEELEN Sven
------------13-
Bandera Bélgica
LACROIX Dany
------------14-
Bandera Eslovaquia
BARENYI Milan
------------15-
Bandera Alemania
URBAN Malte
------------178
Bandera Italia
DE PATRE Roberto
------------1821
Bandera Suecia
LINDGREN Emil
------------20-
Bandera Suiza
TARAMARCAZ Julien
------------22-
Bandera Eslovaquia
HARING Martin
------------25-
Bandera Suiza
KUGLER Andreas
------------28-
Bandera Italia
CAPPI Fabio
------------30-
Bandera República Checa
STYBAR Zdenek
-------------1
Bandera República Checa
KLOUCEK Lukas
-------------6
Bandera Eslovaquia
GAVENDA Robert
-------------9
Bandera Italia
FANELLI Ivan
-------------13
Bandera Dinamarca
PARBO Joachim
-------------14
Bandera República Checa
PRIHODA Lukas
-------------19
Bandera Italia
GIUTOLI Gabriele
-------------27
Bandera Italia
SAIU Giancarlo
-------------29
Bandera Italia
BALBERINI Marco
-------------30