Location Hendersonville, NC, Vereinigte Staaten
 
22-23
C2
22-23
C2
21-22
C2
21-22
C2
19-20
C2
19-20
C2
18-19
C2
17-18
C2
17-18
C2
16-17
C2
16-17
C2
15-16
C2
15-16
C2
14-15
C2
Flagge Vereinigte Staaten
WERNER Kerry
11121111124751
Flagge Kanada
ORSCHEL Tyler
2254----------
Flagge Vereinigte Staaten
ORTENBLAD Tobin
33------------
Flagge Vereinigte Staaten
VAN KEMPEN Jules
48-7----------
Flagge Vereinigte Staaten
MCNEILL Dillon
572512----------
Flagge Kanada
SANDERSON Brody
64------------
Flagge Vereinigte Staaten
BROWN Sam
75------------
Flagge Vereinigte Staaten
HILDEBRANDT Casey
817---------1819-
Flagge Vereinigte Staaten
SPRANGER Jack
910------------
Flagge Kanada
VALENTI Luke
1014------------
Flagge Vereinigte Staaten
JEDLICKA Ethan
11222425----------
Flagge Vereinigte Staaten
LIVERMON Travis
121215174395413222
Flagge Vereinigte Staaten
GINIAT Andrew
1316182076141510-----
Flagge Kanada
BARTON Malcolm
14182123-9--------
Flagge Vereinigte Staaten
MCDONALD Brody
1530918----------
Flagge Vereinigte Staaten
MAGUN Adrian
1620------------
Flagge Vereinigte Staaten
SCHROEDER Allan
1721----17-------
Flagge Vereinigte Staaten
OLANDER Jacob
18233734----------
Flagge Vereinigte Staaten
CLOUTIER Tyler
19292019----------
Flagge Vereinigte Staaten
POPPLE Ryan
2026------------
Flagge Vereinigte Staaten
UETRECHT Ryder
21323938----------
Flagge Vereinigte Staaten
HARDIN William
2224------------
Flagge Vereinigte Staaten
DOHERTY Ethan
2328------------
Flagge Vereinigte Staaten
STIERWALT Lucas
24DNFDNF26----------
Flagge Vereinigte Staaten
WOODARD Eli
2525------------
Flagge Vereinigte Staaten
LIVERMON Lucas
2636---DNF-18221818282437
Flagge Vereinigte Staaten
OBERMAN Cole
2738---------24--
Flagge Vereinigte Staaten
YARBRO Lee
2837------------
Flagge Vereinigte Staaten
GREEN Alex
29332221----------
Flagge Vereinigte Staaten
RAGLAND Christopher
30394139----------
Flagge Vereinigte Staaten
DILLMAN Andrew
DNF11710-------14203
Flagge Kanada
RAMSAY Noah
DNF13------------
Flagge Vereinigte Staaten
ARENS Luke
DNF192832----------
Flagge Vereinigte Staaten
MORSE Nathaniel
DNF342628-29---8-3236-
Flagge Kanada
PUNCHARD Cole
-6------------
Flagge Kanada
CLARK Tyler
-969248-------
Flagge Kanada
CLARK Owen
-15816----------
Flagge Vereinigte Staaten
HUGHES John
-27------------
Flagge Vereinigte Staaten
SWINAND Peter
-433327----------
Flagge Vereinigte Staaten
SEITZ William
-DNF-401726--------
Flagge Vereinigte Staaten
MCGILL Scott
--25-15---1721---
Flagge Vereinigte Staaten
HECHT Gage
--31----------
Flagge Vereinigte Staaten
CUPP Cody
--43----------
Flagge Vereinigte Staaten
THOMPSON Eric
--10832423----9
Flagge Vereinigte Staaten
GORRY Richard Cypress
--11151112-914-----
Flagge Vereinigte Staaten
ZAKRAJSEK Dylan
--1214----------
Flagge Vereinigte Staaten
RYAN Alex
--1322-DNF7811691215-
Flagge Vereinigte Staaten
FIX Brannan
--146----------
Flagge Vereinigte Staaten
JACK Rory
--162497--------
Flagge Vereinigte Staaten
MCDONALD Ian
--1711----------
Flagge Vereinigte Staaten
STROHMEYER Andrew
--19DNF----------
Flagge Vereinigte Staaten
JOHNSON Kyle
--2313----------
Flagge Vereinigte Staaten
PERLEY Bradford
--2729121111101214---11
Flagge Vereinigte Staaten
KNOWLES Nathan
--29DNF----------
Flagge Vereinigte Staaten
JUNGE Frederick
--3030--25-------
Flagge Vereinigte Staaten
DAVIS Merwin
----5554678---
Flagge Vereinigte Staaten
BLACKBURN Trent
----68DNF------30
Flagge Vereinigte Staaten
BECKETT Carson
----810--------
Flagge Vereinigte Staaten
SHAW Walker
----101312-------
Flagge Vereinigte Staaten
RICE Byron
----1321DNF61346131220
Flagge Vereinigte Staaten
DIETZ Andrew
----141823-------
Flagge Vereinigte Staaten
MARION Robert
----151618--551194
Flagge Vereinigte Staaten
SCARANO Andrew
----16----22----
Flagge Vereinigte Staaten
NIESEN Christopher
----1819--------
Flagge Vereinigte Staaten
LEWIS Simon
----1922--------
Flagge Vereinigte Staaten
COLLINS Patrick
----2017--------
Flagge Vereinigte Staaten
THOMPSON Charles
----2127-1620-----
Flagge Vereinigte Staaten
BORNER Thomas
----2224--------
Flagge Vereinigte Staaten
LOUIS Rhys
----2320--------
Flagge Vereinigte Staaten
BIRCH Derek
----2425--------
Flagge Vereinigte Staaten
WHITE Jack
----2528--------
Flagge Vereinigte Staaten
MULLALY Keith
----DNF14-DNF161014---
Flagge Vereinigte Staaten
VAN WINKLE Nicholas
-----23-----36-24
Flagge Vereinigte Staaten
WILLSEY Cooper
------2-2-23016-
Flagge Kanada
HOLMGREN Gunnar
------3-------
Flagge Vereinigte Staaten
RHIM Brendan
------6------10
Flagge Vereinigte Staaten
COWIE Tristan
------1035314-5
Flagge Vereinigte Staaten
BARTON Nathan
------13-------
Flagge Vereinigte Staaten
SMITH Scott
------15----1013-
Flagge Kanada
DINIZ Nicholas
------16-------
Flagge Vereinigte Staaten
BAUER Josh
------19-------
Flagge Vereinigte Staaten
GIELAR Ian
------20-------
Flagge Vereinigte Staaten
POTTER Michael
------21-------
Flagge Vereinigte Staaten
JOHNSTON Spencer
------22-------
Flagge Kanada
MYSKO Paul
------24-------
Flagge Luxemburg
OKENFUSS Jon
------261719-----
Flagge Vereinigte Staaten
WALKER Jason
------27-------
Flagge Vereinigte Staaten
DONAHUE Alec
------DNF-----23-
Flagge Vereinigte Staaten
SWARTZ Caleb
-------78-----
Flagge Vereinigte Staaten
NEFF Isaac
-------117-----
Flagge Vereinigte Staaten
BICKMORE Cade
-------129-----
Flagge Vereinigte Staaten
KIEFFER Samuel
-------1317-----
Flagge Vereinigte Staaten
LANDRY Michael
-------1415-----
Flagge Vereinigte Staaten
SPONSEL Alistair
-------1921-----
Flagge Vereinigte Staaten
MYERS Scott
--------18-----
Flagge Vereinigte Staaten
HOUGH Charlie
--------23-----
Flagge Vereinigte Staaten
HINDMAN Steve
--------24-----
Flagge Vereinigte Staaten
NYSTROM Anders
--------25-----
Flagge Vereinigte Staaten
REARDON Andrew
---------910222219
Flagge Vereinigte Staaten
GAFFNEY Lewis
---------1115312915
Flagge Vereinigte Staaten
TIMMERMAN Dan
---------127--36
Flagge Vereinigte Staaten
SHEFTALL William
---------13132928-
Flagge Vereinigte Staaten
BAILEY Andrew
---------15-27-25
Flagge Vereinigte Staaten
TRAVIESO Frank
---------1612192517
Flagge Vereinigte Staaten
HOFFNER Scott
---------1917---
Flagge Vereinigte Staaten
VRAMBOUT Oliver
---------2020---
Flagge Vereinigte Staaten
BARNES Will
---------21194338-
Flagge Vereinigte Staaten
GOORSKEY Abe
---------23243834-
Flagge Vereinigte Staaten
WIKOFF Phil
---------24----
Flagge Vereinigte Staaten
BROOKSHIRE Grayson
---------25---32
Flagge Vereinigte Staaten
HOUGH III Charles
----------11---
Flagge Vereinigte Staaten
BASSETT Stephen
----------16---
Flagge Vereinigte Staaten
REEVES Matthew
----------224033-
Flagge Neuseeland
WRIGHT Paul
----------23---
Flagge Vereinigte Staaten
KLINE Gavin
----------25---
Flagge Vereinigte Staaten
SUMMERHILL Daniel
-----------11-
Flagge Vereinigte Staaten
CLARK Anthony
-----------367
Flagge Vereinigte Staaten
ECKMANN Yannick
-----------54-
Flagge Vereinigte Staaten
MATTER Brian
-----------63-
Flagge Vereinigte Staaten
FREDERICK Ben
-----------888
Flagge Vereinigte Staaten
WITTWER Greg
-----------911-
Flagge Vereinigte Staaten
WOODALL Ryan
-----------1514-
Flagge Vereinigte Staaten
VROUWENVELDER Luke
-----------1621-
Flagge Vereinigte Staaten
MYERSON Adam
-----------171718
Flagge Vereinigte Staaten
SHORT Philip
-----------201023
Flagge Vereinigte Staaten
WHITTIER Spencer
-----------2126-
Flagge Vereinigte Staaten
KISSEBERTH Jack
-----------2327-
Flagge Vereinigte Staaten
MCNICHOLAS Dylan
-----------25--
Flagge Vereinigte Staaten
WELLS Jake
-----------2618-
Flagge Vereinigte Staaten
MEUCCI Alex
-----------3730-
Flagge Vereinigte Staaten
BERGEY Gunnar
-----------42-26
Flagge Kanada
JETTE Cameron
------------7-
Flagge Vereinigte Staaten
WELLS Troy
-------------6
Flagge Vereinigte Staaten
KELLEY Josh
-------------12
Flagge Vereinigte Staaten
BRADFORD-PARISH Kevin
-------------13
Flagge Vereinigte Staaten
RICHARDS Westley
-------------14
Flagge Vereinigte Staaten
SCHEMPF Weston
-------------16
Flagge Vereinigte Staaten
RIMMER Robert
-------------21
Flagge Vereinigte Staaten
JOHNSON Joshua
-------------22
Flagge Vereinigte Staaten
TANKERSLEY Nolan
-------------27
Flagge Vereinigte Staaten
BARING Elliott
-------------28
Flagge Vereinigte Staaten
WOLF Dan
-------------29